0
SECTION
2
HEADER
0
ENDSEC
0
SECTION
2
TABLES
0
TABLE
2
LTYPE
0
LTYPE
72
65
70
64
2
CONTINUOUS
3
______
73
0
40
0
0
ENDTAB
0
TABLE
2
LAYER
0
LAYER
2
DEFAULT_255_2_778
70
0
62
255
6
CONTINUOUS
0
LAYER
2
DEFAULT_4_2_778
70
0
62
4
6
CONTINUOUS
0
ENDTAB
0
ENDSEC
0
SECTION
2
ENTITIES
0
LINE
8
DEFAULT_255_2_778
10
9.3017708
20
-28.8354418
11
24.8047
21
-28.8354418
0
LINE
8
DEFAULT_255_2_778
10
71.3134878
20
-28.8354418
11
55.8105586
21
-28.8354418
0
ARC
8
0
10
27.9210257
20
-28.8316743
40
3.1163279
50
162.2115662
51
180.0692683
0
ARC
8
0
10
27.8991867
20
-28.8294476
40
3.0948563
50
106.233035
51
162.1272995
0
ARC
8
0
10
27.9020014
20
-28.8558676
40
3.1210133
50
89.9397024
51
106.1470628
0
ARC
8
0
10
27.9090546
20
-28.8511767
40
3.116323
50
72.211574
51
90.0692906
0
ARC
8
0
10
27.9112801
20
-28.8293427
40
3.0948563
50
16.2330519
51
72.1273159
0
ARC
8
0
10
27.8848574
20
-28.8321569
40
3.1210159
50
359.9396964
51
16.1470567
0
ARC
8
0
10
27.8895461
20
-28.8392093
40
3.1163279
50
342.2115662
51
0.0692683
0
ARC
8
0
10
27.9113851
20
-28.841436
40
3.0948563
50
286.233035
51
342.1272995
0
ARC
8
0
10
27.9085704
20
-28.815016
40
3.1210133
50
269.9397024
51
286.1470628
0
ARC
8
0
10
27.9015172
20
-28.8197069
40
3.116323
50
252.211574
51
270.0692906
0
ARC
8
0
10
27.8992917
20
-28.8415409
40
3.0948563
50
196.2330519
51
252.1273159
0
ARC
8
0
10
27.9257144
20
-28.8387267
40
3.1210159
50
179.9396964
51
196.1470567
0
LINE
8
DEFAULT_255_2_778
10
24.8047
20
-28.8354418
11
24.8047
21
-28.8354418
0
ARC
8
0
10
52.7256968
20
-28.8316731
40
3.1163122
50
162.2114963
51
180.0692913
0
ARC
8
0
10
52.7038795
20
-28.8294541
40
3.0948634
50
106.2330697
51
162.1272167
0
ARC
8
0
10
52.7066884
20
-28.8558535
40
3.1209992
50
89.9397069
51
106.147101
0
ARC
8
0
10
52.7137407
20
-28.8511667
40
3.116313
50
72.2115453
51
90.0692774
0
ARC
8
0
10
52.7159606
20
-28.8293492
40
3.0948637
50
16.2331372
51
72.1272823
0
ARC
8
0
10
52.6895539
20
-28.8321576
40
3.1210063
50
359.9397091
51
16.1471211
0
ARC
8
0
10
52.6942486
20
-28.8392105
40
3.1163122
50
342.2114963
51
0.0692913
0
ARC
8
0
10
52.7160659
20
-28.8414295
40
3.0948634
50
286.2330697
51
342.1272167
0
ARC
8
0
10
52.713257
20
-28.8150301
40
3.1209992
50
269.9397069
51
286.147101
0
ARC
8
0
10
52.7062047
20
-28.8197169
40
3.116313
50
252.2115453
51
270.0692774
0
ARC
8
0
10
52.7039848
20
-28.8415344
40
3.0948637
50
196.2331372
51
252.1272823
0
ARC
8
0
10
52.7303915
20
-28.838726
40
3.1210063
50
179.9397091
51
196.1471211
0
LINE
8
DEFAULT_255_2_778
10
49.6093868
20
-28.8354418
11
49.6093868
21
-28.8354418
0
LINE
8
DEFAULT_255_2_778
10
27.9052859
20
-22.6342701
11
52.7099727
21
-22.6342701
0
LINE
8
DEFAULT_255_2_778
10
37.2070368
20
-16.4331116
11
40.3076227
21
-18.9135803
0
LINE
8
DEFAULT_255_2_778
10
40.3076227
20
-18.9135803
11
40.3076227
21
-22.6342833
0
LINE
8
DEFAULT_4_2_778
10
70.0732535
20
-31.9360277
11
70.0732535
21
-25.734856
0
LINE
8
DEFAULT_4_2_778
10
73.1738195
20
-28.8354418
11
70.0732336
21
-28.8354418
0
LINE
8
DEFAULT_4_2_778
10
9.3017708
20
-25.734856
11
9.3017708
21
-31.9360277
0
LINE
8
DEFAULT_4_2_778
10
6.2011783
20
-28.8354418
11
9.3017642
21
-28.8354418
0
ENDSEC
0
EOF