0
SECTION
2
HEADER
0
ENDSEC
0
SECTION
2
TABLES
0
TABLE
2
LTYPE
0
LTYPE
72
65
70
64
2
CONTINUOUS
3
______
73
0
40
0
0
ENDTAB
0
TABLE
2
LAYER
0
LAYER
2
DEFAULT_255_2_778
70
0
62
255
6
CONTINUOUS
0
LAYER
2
DEFAULT_4_2_778
70
0
62
4
6
CONTINUOUS
0
ENDTAB
0
ENDSEC
0
SECTION
2
ENTITIES
0
ARC
8
0
10
28.2356313
20
-31.3120948
40
3.4309533
50
163.1854718
51
180.0639423
0
ARC
8
0
10
28.2089676
20
-31.3094307
40
3.4046628
50
108.828352
51
163.0985857
0
ARC
8
0
10
28.2095933
20
-31.3249632
40
3.4195691
50
91.4196611
51
108.7542833
0
ARC
8
0
10
28.215286
20
-31.4154599
40
3.5101806
50
89.9993689
51
91.4759551
0
ARC
8
0
10
28.2191542
20
-31.3362288
40
3.4309516
50
73.1854227
51
90.0639523
0
ARC
8
0
10
28.2218178
20
-31.3095661
40
3.4046623
50
18.8282882
51
73.0985342
0
ARC
8
0
10
28.2062901
20
-31.3101916
40
3.4195639
50
1.4196437
51
18.7542431
0
ARC
8
0
10
28.1158186
20
-31.3158851
40
3.5101504
50
359.9993689
51
1.4759616
0
ARC
8
0
10
28.1950179
20
-31.3197527
40
3.4309533
50
343.1854718
51
0.0639423
0
ARC
8
0
10
28.2216816
20
-31.3224167
40
3.4046628
50
288.828352
51
343.0985857
0
ARC
8
0
10
28.2210559
20
-31.3068842
40
3.4195691
50
271.4196611
51
288.7542833
0
ARC
8
0
10
28.2153633
20
-31.2163875
40
3.5101806
50
269.9993689
51
271.4759551
0
ARC
8
0
10
28.2114951
20
-31.2956187
40
3.4309516
50
253.1854227
51
270.0639523
0
ARC
8
0
10
28.2088315
20
-31.3222814
40
3.4046623
50
198.8282882
51
253.0985342
0
ARC
8
0
10
28.2243592
20
-31.3216558
40
3.4195639
50
181.4196437
51
198.7542431
0
ARC
8
0
10
28.3148307
20
-31.3159624
40
3.5101504
50
179.9993689
51
181.4759616
0
LINE
8
DEFAULT_255_2_778
10
24.8046802
20
-31.3159237
11
24.8046802
21
-31.3159237
0
ARC
8
0
10
52.4202142
20
-31.3120948
40
3.4309533
50
163.1854718
51
180.0639423
0
ARC
8
0
10
52.3935505
20
-31.3094307
40
3.4046628
50
108.828352
51
163.0985857
0
ARC
8
0
10
52.3941762
20
-31.3249632
40
3.4195691
50
91.4196611
51
108.7542833
0
ARC
8
0
10
52.3998688
20
-31.4154599
40
3.5101806
50
89.9993689
51
91.4759551
0
ARC
8
0
10
52.4037371
20
-31.3362288
40
3.4309516
50
73.1854227
51
90.0639523
0
ARC
8
0
10
52.4064007
20
-31.3095661
40
3.4046623
50
18.8282882
51
73.0985342
0
ARC
8
0
10
52.3908729
20
-31.3101916
40
3.4195639
50
1.4196437
51
18.7542431
0
ARC
8
0
10
52.3004015
20
-31.3158851
40
3.5101504
50
359.9993689
51
1.4759616
0
ARC
8
0
10
52.3796008
20
-31.3197527
40
3.4309533
50
343.1854718
51
0.0639423
0
ARC
8
0
10
52.4062645
20
-31.3224167
40
3.4046628
50
288.828352
51
343.0985857
0
ARC
8
0
10
52.4056388
20
-31.3068842
40
3.4195691
50
271.4196611
51
288.7542833
0
ARC
8
0
10
52.3999462
20
-31.2163875
40
3.5101806
50
269.9993689
51
271.4759551
0
ARC
8
0
10
52.3960779
20
-31.2956187
40
3.4309516
50
253.1854227
51
270.0639523
0
ARC
8
0
10
52.3934143
20
-31.3222814
40
3.4046623
50
198.8282882
51
253.0985342
0
ARC
8
0
10
52.4089421
20
-31.3216558
40
3.4195639
50
181.4196437
51
198.7542431
0
ARC
8
0
10
52.4994135
20
-31.3159624
40
3.5101504
50
179.9993689
51
181.4759616
0
LINE
8
DEFAULT_255_2_778
10
48.9892631
20
-31.3159237
11
48.9892631
21
-31.3159237
0
LINE
8
DEFAULT_255_2_778
10
24.8047
20
-31.0058717
11
9.3017708
21
-31.0058717
0
LINE
8
DEFAULT_255_2_778
10
55.8105586
20
-31.0058717
11
71.3134878
21
-31.0058717
0
LINE
8
DEFAULT_255_2_778
10
27.9052859
20
-34.7265748
11
52.7099727
21
-34.7265748
0
ARC
8
0
10
35.0736057
20
-39.3226827
40
16.1592371
50
44.9554089
51
48.2651949
0
ARC
8
0
10
36.7019023
20
-37.4955044
40
13.711804
50
48.2600437
51
52.0188153
0
ARC
8
0
10
38.0105396
20
-35.8149953
40
11.5818664
50
52.0054334
51
56.5921646
0
ARC
8
0
10
38.9967388
20
-34.3185165
40
9.7896507
50
56.5880586
51
61.8023715
0
ARC
8
0
10
39.6935297
20
-33.0125103
40
8.3093943
50
61.7816254
51
68.4774226
0
ARC
8
0
10
40.131549
20
-31.8942987
40
7.1084575
50
68.45519
51
77.4041728
0
ARC
8
0
10
40.3013053
20
-31.1390578
40
6.3343742
50
77.4129804
51
89.9427978
0
ARC
8
0
10
40.3175907
20
-31.1861828
40
6.3815038
50
90.089438
51
104.6011087
0
ARC
8
0
10
40.5457336
20
-32.0849825
40
7.3087904
50
104.5556258
51
112.8965998
0
ARC
8
0
10
41.0252937
20
-33.2291857
40
8.549423
50
112.8738176
51
119.1616044
0
ARC
8
0
10
41.7710263
20
-34.5700907
40
10.0837434
50
119.1492246
51
124.3237719
0
ARC
8
0
10
42.8240268
20
-36.1153788
40
11.9536961
50
124.3156043
51
128.7426701
0
ARC
8
0
10
44.2020518
20
-37.8370776
40
14.1589608
50
128.7318683
51
132.4390989
0
ARC
8
0
10
45.7292777
20
-39.5166777
40
16.4290802
50
132.4170606
51
135.0281497
0
LINE
8
DEFAULT_255_2_778
10
40.3076293
20
-24.8046868
11
40.3076293
21
-34.7265615
0
LINE
8
DEFAULT_4_2_778
10
70.0732535
20
-34.1064444
11
70.0732535
21
-27.9052727
0
LINE
8
DEFAULT_4_2_778
10
73.1738195
20
-31.0058585
11
70.0732336
21
-31.0058585
0
LINE
8
DEFAULT_4_2_778
10
9.3017708
20
-27.9052727
11
9.3017708
21
-34.1064444
0
LINE
8
DEFAULT_4_2_778
10
6.2011783
20
-31.0058585
11
9.3017642
21
-31.0058585
0
ENDSEC
0
EOF