0
SECTION
2
HEADER
0
ENDSEC
0
SECTION
2
TABLES
0
TABLE
2
LTYPE
0
LTYPE
72
65
70
64
2
CONTINUOUS
3
______
73
0
40
0
0
ENDTAB
0
TABLE
2
LAYER
0
LAYER
2
DEFAULT_255_2_778
70
0
62
255
6
CONTINUOUS
0
LAYER
2
DEFAULT_4_2_778
70
0
62
4
6
CONTINUOUS
0
ENDTAB
0
ENDSEC
0
SECTION
2
ENTITIES
0
LINE
8
DEFAULT_255_2_778
10
8.6816404
20
-26.9751035
11
24.1845696
21
-26.9751035
0
LINE
8
DEFAULT_255_2_778
10
70.6933574
20
-26.9751035
11
55.1904282
21
-26.9751035
0
ARC
8
0
10
27.3008953
20
-26.971336
40
3.1163279
50
162.2115662
51
180.0692683
0
ARC
8
0
10
27.2790563
20
-26.9691094
40
3.0948563
50
106.233035
51
162.1272995
0
ARC
8
0
10
27.281871
20
-26.9955293
40
3.1210133
50
89.9397024
51
106.1470628
0
ARC
8
0
10
27.2889242
20
-26.9908384
40
3.116323
50
72.211574
51
90.0692906
0
ARC
8
0
10
27.2911497
20
-26.9690045
40
3.0948563
50
16.2330519
51
72.1273159
0
ARC
8
0
10
27.264727
20
-26.9718187
40
3.1210159
50
359.9396964
51
16.1470567
0
ARC
8
0
10
27.2694157
20
-26.978871
40
3.1163279
50
342.2115662
51
0.0692683
0
ARC
8
0
10
27.2912547
20
-26.9810977
40
3.0948563
50
286.233035
51
342.1272995
0
ARC
8
0
10
27.28844
20
-26.9546778
40
3.1210133
50
269.9397024
51
286.1470628
0
ARC
8
0
10
27.2813868
20
-26.9593687
40
3.116323
50
252.211574
51
270.0692906
0
ARC
8
0
10
27.2791613
20
-26.9812026
40
3.0948563
50
196.2330519
51
252.1273159
0
ARC
8
0
10
27.305584
20
-26.9783884
40
3.1210159
50
179.9396964
51
196.1470567
0
LINE
8
DEFAULT_255_2_778
10
24.1845696
20
-26.9751035
11
24.1845696
21
-26.9751035
0
ARC
8
0
10
52.1055664
20
-26.9713348
40
3.1163122
50
162.2114963
51
180.0692913
0
ARC
8
0
10
52.0837491
20
-26.9691158
40
3.0948634
50
106.2330697
51
162.1272167
0
ARC
8
0
10
52.086558
20
-26.9955152
40
3.1209992
50
89.9397069
51
106.147101
0
ARC
8
0
10
52.0936103
20
-26.9908284
40
3.116313
50
72.2115453
51
90.0692774
0
ARC
8
0
10
52.0958302
20
-26.969011
40
3.0948637
50
16.2331372
51
72.1272823
0
ARC
8
0
10
52.0694235
20
-26.9718194
40
3.1210063
50
359.9397091
51
16.1471211
0
ARC
8
0
10
52.0741182
20
-26.9788723
40
3.1163122
50
342.2114963
51
0.0692913
0
ARC
8
0
10
52.0959355
20
-26.9810912
40
3.0948634
50
286.2330697
51
342.1272167
0
ARC
8
0
10
52.0931266
20
-26.9546918
40
3.1209992
50
269.9397069
51
286.147101
0
ARC
8
0
10
52.0860743
20
-26.9593786
40
3.116313
50
252.2115453
51
270.0692774
0
ARC
8
0
10
52.0838544
20
-26.9811961
40
3.0948637
50
196.2331372
51
252.1272823
0
ARC
8
0
10
52.1102611
20
-26.9783877
40
3.1210063
50
179.9397091
51
196.1471211
0
LINE
8
DEFAULT_255_2_778
10
48.9892564
20
-26.9751035
11
48.9892564
21
-26.9751035
0
LINE
8
DEFAULT_255_2_778
10
30.385748
20
-26.9750969
11
52.0898489
21
-23.8745111
0
LINE
8
DEFAULT_255_2_778
10
39.6875055
20
-34.4165029
11
39.6875055
21
-25.7348626
0
LINE
8
DEFAULT_255_2_778
10
43.4082085
20
-30.6957999
11
39.6875055
21
-34.4165029
0
LINE
8
DEFAULT_255_2_778
10
39.6875055
20
-34.4165029
11
35.9668025
21
-30.6957999
0
LINE
8
DEFAULT_4_2_778
10
70.6933574
20
-30.0756894
11
70.6933574
21
-23.8745177
0
LINE
8
DEFAULT_4_2_778
10
73.7939499
20
-26.9751035
11
70.693364
21
-26.9751035
0
LINE
8
DEFAULT_4_2_778
10
8.6816404
20
-23.8745177
11
8.6816404
21
-30.0756894
0
LINE
8
DEFAULT_4_2_778
10
5.5810479
20
-26.9751035
11
8.6816338
21
-26.9751035
0
ENDSEC
0
EOF