0
SECTION
2
HEADER
0
ENDSEC
0
SECTION
2
TABLES
0
TABLE
2
LTYPE
0
LTYPE
72
65
70
64
2
CONTINUOUS
3
______
73
0
40
0
0
ENDTAB
0
TABLE
2
LAYER
0
LAYER
2
DEFAULT_255_2_778
70
0
62
255
6
CONTINUOUS
0
LAYER
2
DEFAULT_4_2_778
70
0
62
4
6
CONTINUOUS
0
ENDTAB
0
ENDSEC
0
SECTION
2
ENTITIES
0
LINE
8
DEFAULT_255_2_778
10
8.0615166
20
-24.8046868
11
24.184563
21
-24.8046868
0
LINE
8
DEFAULT_255_2_778
10
70.6933508
20
-24.8046868
11
55.1904215
21
-24.8046868
0
ARC
8
0
10
27.3008953
20
-24.1808154
40
3.1163279
50
162.2115662
51
180.0692683
0
ARC
8
0
10
27.2790563
20
-24.1785887
40
3.0948563
50
106.233035
51
162.1272995
0
ARC
8
0
10
27.281871
20
-24.2050086
40
3.1210133
50
89.9397024
51
106.1470628
0
ARC
8
0
10
27.2889242
20
-24.2003177
40
3.116323
50
72.211574
51
90.0692906
0
ARC
8
0
10
27.2911497
20
-24.1784838
40
3.0948563
50
16.2330519
51
72.1273159
0
ARC
8
0
10
27.264727
20
-24.181298
40
3.1210159
50
359.9396964
51
16.1470567
0
ARC
8
0
10
27.2694157
20
-24.1883504
40
3.1163279
50
342.2115662
51
0.0692683
0
ARC
8
0
10
27.2912547
20
-24.190577
40
3.0948563
50
286.233035
51
342.1272995
0
ARC
8
0
10
27.28844
20
-24.1641571
40
3.1210133
50
269.9397024
51
286.1470628
0
ARC
8
0
10
27.2813868
20
-24.168848
40
3.116323
50
252.211574
51
270.0692906
0
ARC
8
0
10
27.2791613
20
-24.1906819
40
3.0948563
50
196.2330519
51
252.1273159
0
ARC
8
0
10
27.305584
20
-24.1878677
40
3.1210159
50
179.9396964
51
196.1470567
0
LINE
8
DEFAULT_255_2_778
10
24.1845696
20
-24.1845829
11
24.1845696
21
-24.1845829
0
ARC
8
0
10
52.1055664
20
-24.1808141
40
3.1163122
50
162.2114963
51
180.0692913
0
ARC
8
0
10
52.0837491
20
-24.1785952
40
3.0948634
50
106.2330697
51
162.1272167
0
ARC
8
0
10
52.086558
20
-24.2049946
40
3.1209992
50
89.9397069
51
106.147101
0
ARC
8
0
10
52.0936103
20
-24.2003078
40
3.116313
50
72.2115453
51
90.0692774
0
ARC
8
0
10
52.0958302
20
-24.1784903
40
3.0948637
50
16.2331372
51
72.1272823
0
ARC
8
0
10
52.0694235
20
-24.1812987
40
3.1210063
50
359.9397091
51
16.1471211
0
ARC
8
0
10
52.0741182
20
-24.1883516
40
3.1163122
50
342.2114963
51
0.0692913
0
ARC
8
0
10
52.0959355
20
-24.1905706
40
3.0948634
50
286.2330697
51
342.1272167
0
ARC
8
0
10
52.0931266
20
-24.1641712
40
3.1209992
50
269.9397069
51
286.147101
0
ARC
8
0
10
52.0860743
20
-24.168858
40
3.116313
50
252.2115453
51
270.0692774
0
ARC
8
0
10
52.0838544
20
-24.1906754
40
3.0948637
50
196.2331372
51
252.1272823
0
ARC
8
0
10
52.1102611
20
-24.187867
40
3.1210063
50
179.9397091
51
196.1471211
0
LINE
8
DEFAULT_255_2_778
10
48.9892564
20
-24.1845829
11
48.9892564
21
-24.1845829
0
LINE
8
DEFAULT_255_2_778
10
30.385748
20
-24.8046868
11
52.0898489
21
-21.0839838
0
LINE
8
DEFAULT_255_2_778
10
39.6875055
20
-23.5644525
11
39.6875055
21
-33.4863272
0
LINE
8
DEFAULT_255_2_778
10
39.6875055
20
-33.4863272
11
45.8886772
21
-33.4863272
0
LINE
8
DEFAULT_255_2_778
10
45.8886772
20
-33.4863272
11
39.6875055
21
-27.2851555
0
LINE
8
DEFAULT_4_2_778
10
70.6933574
20
-27.9052727
11
70.6933574
21
-21.704101
0
LINE
8
DEFAULT_4_2_778
10
73.7939499
20
-24.8046868
11
70.693364
21
-24.8046868
0
LINE
8
DEFAULT_4_2_778
10
8.6816404
20
-21.704101
11
8.6816404
21
-27.9052727
0
LINE
8
DEFAULT_4_2_778
10
5.5810479
20
-24.8046868
11
8.6816338
21
-24.8046868
0
ENDSEC
0
EOF