0
SECTION
2
HEADER
0
ENDSEC
0
SECTION
2
TABLES
0
TABLE
2
LTYPE
0
LTYPE
72
65
70
64
2
CONTINUOUS
3
______
73
0
40
0
0
ENDTAB
0
TABLE
2
LAYER
0
LAYER
2
DEFAULT_255_2_778
70
0
62
255
6
CONTINUOUS
0
LAYER
2
DEFAULT_4_2_778
70
0
62
4
6
CONTINUOUS
0
ENDTAB
0
ENDSEC
0
SECTION
2
ENTITIES
0
LINE
8
DEFAULT_255_2_778
10
61.2365722
20
29.0214836
11
44.9584965
21
29.0214836
0
LINE
8
DEFAULT_255_2_778
10
15.1928773
20
44.0283059
11
44.9585015
21
44.0283059
0
LINE
8
DEFAULT_255_2_778
10
44.9585015
20
44.0283059
11
44.9585015
21
14.2626817
0
LINE
8
DEFAULT_255_2_778
10
44.9585015
20
14.2626817
11
15.1928773
21
14.2626817
0
LINE
8
DEFAULT_255_2_778
10
15.1928773
20
14.2626817
11
15.1928773
21
44.0283059
0
LINE
8
DEFAULT_255_2_778
10
29.9516593
20
61.5466374
11
30.0756828
21
44.0283274
0
LINE
8
DEFAULT_255_2_778
10
30.0756828
20
-1.8603432
11
30.0756828
21
14.2627032
0
ARC
8
0
10
30.0742358
20
44.0315091
40
1.5488426
50
152.2809376
51
180.1175159
0
ARC
8
0
10
30.0718465
20
44.0319212
40
1.5465361
50
98.5930764
51
152.2532835
0
ARC
8
0
10
30.0750987
20
44.0035501
40
1.5750751
50
89.9785152
51
98.5558509
0
ARC
8
0
10
30.0788672
20
44.0297863
40
1.5488422
50
62.2808221
51
90.1175556
0
ARC
8
0
10
30.0792758
20
44.0321738
40
1.5465387
50
8.5930443
51
62.2530827
0
ARC
8
0
10
30.0509292
20
44.0289228
40
1.5750533
50
359.9785217
51
8.555909
0
ARC
8
0
10
30.077143
20
44.0251556
40
1.5488426
50
332.2809376
51
0.1175159
0
ARC
8
0
10
30.0795323
20
44.0247434
40
1.5465361
50
278.5930764
51
332.2532835
0
ARC
8
0
10
30.07628
20
44.0531145
40
1.5750751
50
269.9785152
51
278.5558509
0
ARC
8
0
10
30.0725116
20
44.0268783
40
1.5488422
50
242.2808221
51
270.1175556
0
ARC
8
0
10
30.0721029
20
44.0244908
40
1.5465387
50
188.5930443
51
242.2530827
0
ARC
8
0
10
30.1004496
20
44.0277419
40
1.5750533
50
179.9785217
51
188.555909
0
LINE
8
DEFAULT_255_2_778
10
28.5253964
20
44.0283323
11
28.5253964
21
44.0283323
0
ARC
8
0
10
30.0742438
20
14.1331715
40
1.5488507
50
152.2810128
51
180.1175751
0
ARC
8
0
10
30.0718406
20
14.1335875
40
1.54653
50
98.5928905
51
152.2532441
0
ARC
8
0
10
30.0750987
20
14.1052111
40
1.5750751
50
89.978515
51
98.5558505
0
ARC
8
0
10
30.0788677
20
14.1314387
40
1.5488507
50
62.2810128
51
90.1175751
0
ARC
8
0
10
30.0792838
20
14.1338419
40
1.54653
50
8.5928905
51
62.2532441
0
ARC
8
0
10
30.0509073
20
14.1305838
40
1.5750751
50
359.978515
51
8.5558505
0
ARC
8
0
10
30.0771349
20
14.1268148
40
1.5488507
50
332.2810128
51
0.1175751
0
ARC
8
0
10
30.0795381
20
14.1263988
40
1.54653
50
278.5928905
51
332.2532441
0
ARC
8
0
10
30.07628
20
14.1547752
40
1.5750751
50
269.978515
51
278.5558505
0
ARC
8
0
10
30.072511
20
14.1285476
40
1.5488507
50
242.2810128
51
270.1175751
0
ARC
8
0
10
30.072095
20
14.1261444
40
1.54653
50
188.5928905
51
242.2532441
0
ARC
8
0
10
30.1004714
20
14.1294025
40
1.5750751
50
179.978515
51
188.5558505
0
LINE
8
DEFAULT_255_2_778
10
28.5253964
20
14.1299931
11
28.5253964
21
14.1299931
0
ARC
8
0
10
44.8429331
20
29.0817045
40
1.5488426
50
152.2809376
51
180.1175159
0
ARC
8
0
10
44.8405438
20
29.0821167
40
1.5465361
50
98.5930764
51
152.2532835
0
ARC
8
0
10
44.843796
20
29.0537455
40
1.5750751
50
89.9785152
51
98.5558509
0
ARC
8
0
10
44.8475635
20
29.079985
40
1.5488389
50
62.2807935
51
90.1175205
0
ARC
8
0
10
44.8479707
20
29.0823664
40
1.5465415
50
8.5931346
51
62.2531098
0
ARC
8
0
10
44.8196264
20
29.0791182
40
1.5750533
50
359.9785218
51
8.5559091
0
ARC
8
0
10
44.8458348
20
29.0753499
40
1.548848
50
332.2809387
51
0.1175579
0
ARC
8
0
10
44.8482319
20
29.074937
40
1.5465341
50
278.5929643
51
332.2531719
0
ARC
8
0
10
44.8449773
20
29.1032982
40
1.5750635
50
269.9785156
51
278.5558806
0
ARC
8
0
10
44.8412083
20
29.0770822
40
1.5488507
50
242.2810128
51
270.1175751
0
ARC
8
0
10
44.8407923
20
29.074679
40
1.54653
50
188.5928905
51
242.2532441
0
ARC
8
0
10
44.8691687
20
29.0779371
40
1.5750751
50
179.978515
51
188.5558505
0
LINE
8
DEFAULT_255_2_778
10
43.2940937
20
29.0785277
11
43.2940937
21
29.0785277
0
LINE
8
DEFAULT_255_2_778
10
21.3667694
20
38.2922303
11
21.3667694
21
32.4011172
0
LINE
8
DEFAULT_255_2_778
10
23.8472401
20
32.2460879
11
23.8472401
21
38.6022889
0
LINE
8
DEFAULT_255_2_778
10
22.7086801
20
39.6341763
11
27.433979
21
35.3206396
0
LINE
8
DEFAULT_255_2_778
10
27.433979
20
35.3206396
11
22.7086801
21
31.0058676
0
LINE
8
DEFAULT_255_2_778
10
22.7086801
20
31.0058676
11
17.9833893
21
35.3194042
0
LINE
8
DEFAULT_255_2_778
10
17.9833893
20
35.3194042
11
22.7086801
21
39.6341763
0
LINE
8
DEFAULT_4_2_778
10
26.9751035
20
61.3916131
11
33.1762752
21
61.3916131
0
LINE
8
DEFAULT_4_2_778
10
30.0756894
20
64.4921923
11
30.0756894
21
61.3916065
0
LINE
8
DEFAULT_4_2_778
10
26.9751035
20
-1.8603449
11
33.1762752
21
-1.8603449
0
LINE
8
DEFAULT_4_2_778
10
30.0756761
20
-1.8603515
11
30.0756761
21
-4.9609374
0
LINE
8
DEFAULT_4_2_778
10
61.0815347
20
32.2460929
11
61.0815347
21
26.0449212
0
LINE
8
DEFAULT_4_2_778
10
61.0815545
20
29.1454938
11
64.1821404
21
29.1454938
0
LINE
8
DEFAULT_255_2_778
10
40.6176813
20
32.4234347
11
39.7904425
21
33.486314
0
LINE
8
DEFAULT_255_2_778
10
39.7904425
20
33.486314
11
39.3774469
21
32.2460796
0
LINE
8
DEFAULT_255_2_778
10
39.3774469
20
32.2460796
11
40.6176813
21
32.4234347
0
LINE
8
DEFAULT_255_2_778
10
36.2768677
20
38.4472687
11
36.2768677
21
32.3974039
0
LINE
8
DEFAULT_255_2_778
10
34.4165162
20
35.3466828
11
36.2768677
21
35.3466828
0
LINE
8
DEFAULT_255_2_778
10
36.2768545
20
36.5869064
11
40.6176747
21
38.4472579
0
LINE
8
DEFAULT_255_2_778
10
36.2768545
20
34.1064377
11
39.9975575
21
32.8662034
0
LINE
8
DEFAULT_255_2_778
10
37.5170888
20
26.6650317
11
37.5170888
21
23.9526368
0
LINE
8
DEFAULT_255_2_778
10
37.5170888
20
17.9833913
11
37.5170888
21
20.6957862
0
LINE
8
DEFAULT_255_2_778
10
37.5170888
20
20.6957862
11
36.2768545
21
23.9514014
0
ENDSEC
0
EOF