0
SECTION
2
HEADER
0
ENDSEC
0
SECTION
2
TABLES
0
TABLE
2
LTYPE
0
LTYPE
72
65
70
64
2
CONTINUOUS
3
______
73
0
40
0
0
ENDTAB
0
TABLE
2
LAYER
0
LAYER
2
DEFAULT_255_2_778
70
0
62
255
6
CONTINUOUS
0
LAYER
2
DEFAULT_4_2_778
70
0
62
4
6
CONTINUOUS
0
ENDTAB
0
ENDSEC
0
SECTION
2
ENTITIES
0
LINE
8
DEFAULT_255_2_778
10
15.1928773
20
44.0283059
11
44.9585015
21
44.0283059
0
LINE
8
DEFAULT_255_2_778
10
44.9585015
20
44.0283059
11
44.9585015
21
14.2626817
0
LINE
8
DEFAULT_255_2_778
10
44.9585015
20
14.2626817
11
15.1928773
21
14.2626817
0
LINE
8
DEFAULT_255_2_778
10
15.1928773
20
14.2626817
11
15.1928773
21
44.0283059
0
LINE
8
DEFAULT_255_2_778
10
31.1546896
20
29.1455037
11
34.1089262
21
29.1455037
0
LINE
8
DEFAULT_255_2_778
10
34.1089262
20
29.1455037
11
37.3645413
21
31.3159138
0
LINE
8
DEFAULT_255_2_778
10
37.5084158
20
29.1455037
11
40.7727109
21
29.1455037
0
LINE
8
DEFAULT_255_2_778
10
26.3549864
20
26.6650383
11
28.835455
21
26.6650383
0
LINE
8
DEFAULT_255_2_778
10
28.835455
20
26.6650383
11
28.835455
21
17.9833979
0
LINE
8
DEFAULT_255_2_778
10
28.835455
20
17.9833979
11
26.3549864
21
17.9833979
0
LINE
8
DEFAULT_255_2_778
10
26.3549864
20
17.9833979
11
26.3549864
21
26.6650383
0
LINE
8
DEFAULT_255_2_778
10
20.1538146
20
24.1845696
11
25.114752
21
24.1845696
0
LINE
8
DEFAULT_255_2_778
10
25.114752
20
24.1845696
11
22.7136551
21
25.424804
0
LINE
8
DEFAULT_255_2_778
10
22.7136551
20
25.424804
11
22.7136551
21
22.9443353
0
LINE
8
DEFAULT_255_2_778
10
22.7136551
20
22.9443353
11
25.114752
21
24.1845696
0
LINE
8
DEFAULT_255_2_778
10
25.114752
20
20.5382807
11
20.1538146
21
20.5382807
0
LINE
8
DEFAULT_255_2_778
10
20.1538146
20
20.5382807
11
22.5598713
21
21.704101
0
LINE
8
DEFAULT_255_2_778
10
22.5598713
20
21.704101
11
22.5598713
21
19.2236323
0
LINE
8
DEFAULT_255_2_778
10
22.5598713
20
19.2236323
11
20.1538146
21
20.5382807
0
LINE
8
DEFAULT_255_2_778
10
22.6351554
20
41.2362716
11
27.2857738
21
36.5856553
0
LINE
8
DEFAULT_255_2_778
10
27.2857738
20
36.5856553
11
22.6351554
21
31.9350409
0
LINE
8
DEFAULT_255_2_778
10
22.6351554
20
31.9350409
11
17.9845391
21
36.5856553
0
LINE
8
DEFAULT_255_2_778
10
17.9845391
20
36.5856553
11
22.6351554
21
41.2362716
0
LINE
8
DEFAULT_255_2_778
10
21.394049
20
39.8425282
11
21.394049
21
33.4863272
0
LINE
8
DEFAULT_255_2_778
10
23.8745177
20
33.4863272
11
23.8745177
21
39.8425282
0
LINE
8
DEFAULT_255_2_778
10
30.0756894
20
-1.8603515
11
30.0756894
21
14.4177242
0
LINE
8
DEFAULT_255_2_778
10
61.0815479
20
29.145507
11
44.9585015
21
29.145507
0
LINE
8
DEFAULT_255_2_778
10
30.0756894
20
61.3915999
11
30.0756894
21
44.1833484
0
ARC
8
0
10
44.9556058
20
29.1483858
40
1.237342
50
147.4067141
51
180.1339154
0
ARC
8
0
10
44.9551327
20
29.1488762
40
1.2366793
50
96.450986
51
147.4140532
0
ARC
8
0
10
44.958216
20
29.1214549
40
1.2642733
50
89.9870646
51
96.4502109
0
ARC
8
0
10
44.9613939
20
29.1483907
40
1.2373408
50
57.4065107
51
90.1339356
0
ARC
8
0
10
44.9618811
20
29.1488613
40
1.236682
50
6.450958
51
57.4137841
0
ARC
8
0
10
44.9344847
20
29.145779
40
1.2642513
50
359.9870721
51
6.4502643
0
ARC
8
0
10
44.9613971
20
29.1426018
40
1.237342
50
327.4067141
51
0.1339154
0
ARC
8
0
10
44.9618702
20
29.1421113
40
1.2366793
50
276.450986
51
327.4140532
0
ARC
8
0
10
44.9587869
20
29.1695326
40
1.2642733
50
269.9870646
51
276.4502109
0
ARC
8
0
10
44.955609
20
29.1425968
40
1.2373408
50
237.4065107
51
270.1339356
0
ARC
8
0
10
44.9551218
20
29.1421262
40
1.236682
50
186.450958
51
237.4137841
0
ARC
8
0
10
44.9825182
20
29.1452085
40
1.2642513
50
179.9870721
51
186.4502643
0
LINE
8
DEFAULT_255_2_778
10
43.7182671
20
29.1454938
11
43.7182671
21
29.1454938
0
ARC
8
0
10
30.0727949
20
44.0312249
40
1.2373432
50
147.4067322
51
180.1339424
0
ARC
8
0
10
30.0723189
20
44.0317163
40
1.2366774
50
96.4509125
51
147.4140356
0
ARC
8
0
10
30.0754039
20
44.0042935
40
1.2642733
50
89.9870646
51
96.4502109
0
ARC
8
0
10
30.0785822
20
44.0312273
40
1.2373427
50
57.4065861
51
90.1339538
0
ARC
8
0
10
30.079071
20
44.0317016
40
1.2366799
50
6.4509028
51
57.4138298
0
ARC
8
0
10
30.0516658
20
44.0286176
40
1.2642581
50
359.9870719
51
6.4502458
0
ARC
8
0
10
30.0785838
20
44.0254397
40
1.2373432
50
327.4067322
51
0.1339424
0
ARC
8
0
10
30.0790599
20
44.0249483
40
1.2366774
50
276.4509125
51
327.4140356
0
ARC
8
0
10
30.0759748
20
44.0523711
40
1.2642733
50
269.9870646
51
276.4502109
0
ARC
8
0
10
30.0727965
20
44.0254373
40
1.2373427
50
237.4065861
51
270.1339538
0
ARC
8
0
10
30.0723077
20
44.024963
40
1.2366799
50
186.4509028
51
237.4138298
0
ARC
8
0
10
30.099713
20
44.0280471
40
1.2642581
50
179.9870719
51
186.4502458
0
LINE
8
DEFAULT_255_2_778
10
28.835455
20
44.0283323
11
28.835455
21
44.0283323
0
ARC
8
0
10
30.0727937
20
14.2655737
40
1.237342
50
147.4067141
51
180.1339154
0
ARC
8
0
10
30.0723207
20
14.2660641
40
1.2366793
50
96.450986
51
147.4140532
0
ARC
8
0
10
30.0754039
20
14.2386429
40
1.2642733
50
89.9870646
51
96.4502109
0
ARC
8
0
10
30.0785818
20
14.2655786
40
1.2373408
50
57.4065107
51
90.1339356
0
ARC
8
0
10
30.079069
20
14.2660492
40
1.236682
50
6.450958
51
57.4137841
0
ARC
8
0
10
30.0516726
20
14.2629669
40
1.2642513
50
359.9870721
51
6.4502643
0
ARC
8
0
10
30.0785851
20
14.2597897
40
1.237342
50
327.4067141
51
0.1339154
0
ARC
8
0
10
30.0790581
20
14.2592992
40
1.2366793
50
276.450986
51
327.4140532
0
ARC
8
0
10
30.0759748
20
14.2867205
40
1.2642733
50
269.9870646
51
276.4502109
0
ARC
8
0
10
30.0727969
20
14.2597848
40
1.2373408
50
237.4065107
51
270.1339356
0
ARC
8
0
10
30.0723097
20
14.2593142
40
1.236682
50
186.450958
51
237.4137841
0
ARC
8
0
10
30.0997061
20
14.2623964
40
1.2642513
50
179.9870721
51
186.4502643
0
LINE
8
DEFAULT_255_2_778
10
28.835455
20
14.2626817
11
28.835455
21
14.2626817
0
LINE
8
DEFAULT_4_2_778
10
61.0815479
20
32.2460796
11
61.0815479
21
26.0449079
0
LINE
8
DEFAULT_4_2_778
10
61.0815347
20
29.1454938
11
64.1821205
21
29.1454938
0
LINE
8
DEFAULT_4_2_778
10
26.9750903
20
61.3915866
11
33.176262
21
61.3915866
0
LINE
8
DEFAULT_4_2_778
10
30.0756894
20
64.4921923
11
30.0756894
21
61.3916065
0
LINE
8
DEFAULT_4_2_778
10
26.9751035
20
-1.8603449
11
33.1762752
21
-1.8603449
0
LINE
8
DEFAULT_4_2_778
10
30.0756894
20
-1.8603449
11
30.0756894
21
-4.9609307
0
ENDSEC
0
EOF