0
SECTION
2
HEADER
0
ENDSEC
0
SECTION
2
TABLES
0
TABLE
2
LTYPE
0
LTYPE
72
65
70
64
2
CONTINUOUS
3
______
73
0
40
0
0
ENDTAB
0
TABLE
2
LAYER
0
LAYER
2
DEFAULT_255_2_778
70
0
62
255
6
CONTINUOUS
0
LAYER
2
DEFAULT_4_2_778
70
0
62
4
6
CONTINUOUS
0
ENDTAB
0
ENDSEC
0
SECTION
2
ENTITIES
0
LINE
8
DEFAULT_255_2_778
10
26.3549864
20
44.0283059
11
56.1206105
21
44.0283059
0
LINE
8
DEFAULT_255_2_778
10
56.1206105
20
44.0283059
11
56.1206105
21
14.2626817
0
LINE
8
DEFAULT_255_2_778
10
56.1206105
20
14.2626817
11
26.3549864
21
14.2626817
0
LINE
8
DEFAULT_255_2_778
10
26.3549864
20
14.2626817
11
26.3549864
21
44.0283059
0
LINE
8
DEFAULT_255_2_778
10
42.316785
20
29.145507
11
45.2710216
21
29.145507
0
LINE
8
DEFAULT_255_2_778
10
45.2710216
20
29.145507
11
48.5266368
21
31.3159171
0
LINE
8
DEFAULT_255_2_778
10
48.6717507
20
29.145507
11
51.9360458
21
29.145507
0
LINE
8
DEFAULT_255_2_778
10
41.2377852
20
-1.8603515
11
41.2377852
21
14.4177242
0
LINE
8
DEFAULT_255_2_778
10
72.2436437
20
29.145507
11
56.1205973
21
29.145507
0
LINE
8
DEFAULT_255_2_778
10
41.2377852
20
61.3915999
11
41.2377852
21
44.1833484
0
ARC
8
0
10
56.1177148
20
29.1483858
40
1.237342
50
147.4067141
51
180.1339154
0
ARC
8
0
10
56.1172418
20
29.1488762
40
1.2366793
50
96.450986
51
147.4140532
0
ARC
8
0
10
56.1203251
20
29.1214549
40
1.2642733
50
89.9870646
51
96.4502109
0
ARC
8
0
10
56.1235029
20
29.1483907
40
1.2373408
50
57.4065107
51
90.1339356
0
ARC
8
0
10
56.1239902
20
29.1488613
40
1.236682
50
6.450958
51
57.4137841
0
ARC
8
0
10
56.0965938
20
29.145779
40
1.2642513
50
359.9870721
51
6.4502643
0
ARC
8
0
10
56.1235062
20
29.1426018
40
1.237342
50
327.4067141
51
0.1339154
0
ARC
8
0
10
56.1239792
20
29.1421113
40
1.2366793
50
276.450986
51
327.4140532
0
ARC
8
0
10
56.120896
20
29.1695326
40
1.2642733
50
269.9870646
51
276.4502109
0
ARC
8
0
10
56.1177181
20
29.1425968
40
1.2373408
50
237.4065107
51
270.1339356
0
ARC
8
0
10
56.1172309
20
29.1421262
40
1.236682
50
186.450958
51
237.4137841
0
ARC
8
0
10
56.1446273
20
29.1452085
40
1.2642513
50
179.9870721
51
186.4502643
0
LINE
8
DEFAULT_255_2_778
10
54.8803762
20
29.1454938
11
54.8803762
21
29.1454938
0
ARC
8
0
10
41.234904
20
44.0312249
40
1.2373432
50
147.4067322
51
180.1339424
0
ARC
8
0
10
41.2344279
20
44.0317163
40
1.2366774
50
96.4509125
51
147.4140356
0
ARC
8
0
10
41.237513
20
44.0042935
40
1.2642733
50
89.9870646
51
96.4502109
0
ARC
8
0
10
41.2406913
20
44.0312273
40
1.2373427
50
57.4065861
51
90.1339538
0
ARC
8
0
10
41.2411801
20
44.0317016
40
1.2366799
50
6.4509028
51
57.4138298
0
ARC
8
0
10
41.2137748
20
44.0286176
40
1.2642581
50
359.9870719
51
6.4502458
0
ARC
8
0
10
41.2406929
20
44.0254397
40
1.2373432
50
327.4067322
51
0.1339424
0
ARC
8
0
10
41.2411689
20
44.0249483
40
1.2366774
50
276.4509125
51
327.4140356
0
ARC
8
0
10
41.2380839
20
44.0523711
40
1.2642733
50
269.9870646
51
276.4502109
0
ARC
8
0
10
41.2349056
20
44.0254373
40
1.2373427
50
237.4065861
51
270.1339538
0
ARC
8
0
10
41.2344168
20
44.024963
40
1.2366799
50
186.4509028
51
237.4138298
0
ARC
8
0
10
41.261822
20
44.0280471
40
1.2642581
50
179.9870719
51
186.4502458
0
LINE
8
DEFAULT_255_2_778
10
39.9975641
20
44.0283323
11
39.9975641
21
44.0283323
0
ARC
8
0
10
41.2349028
20
14.2655737
40
1.237342
50
147.4067141
51
180.1339154
0
ARC
8
0
10
41.2344297
20
14.2660641
40
1.2366793
50
96.450986
51
147.4140532
0
ARC
8
0
10
41.237513
20
14.2386429
40
1.2642733
50
89.9870646
51
96.4502109
0
ARC
8
0
10
41.2406909
20
14.2655786
40
1.2373408
50
57.4065107
51
90.1339356
0
ARC
8
0
10
41.2411781
20
14.2660492
40
1.236682
50
6.450958
51
57.4137841
0
ARC
8
0
10
41.2137817
20
14.2629669
40
1.2642513
50
359.9870721
51
6.4502643
0
ARC
8
0
10
41.2406941
20
14.2597897
40
1.237342
50
327.4067141
51
0.1339154
0
ARC
8
0
10
41.2411672
20
14.2592992
40
1.2366793
50
276.450986
51
327.4140532
0
ARC
8
0
10
41.2380839
20
14.2867205
40
1.2642733
50
269.9870646
51
276.4502109
0
ARC
8
0
10
41.234906
20
14.2597848
40
1.2373408
50
237.4065107
51
270.1339356
0
ARC
8
0
10
41.2344188
20
14.2593142
40
1.236682
50
186.450958
51
237.4137841
0
ARC
8
0
10
41.2618152
20
14.2623964
40
1.2642513
50
179.9870721
51
186.4502643
0
LINE
8
DEFAULT_255_2_778
10
39.9975641
20
14.2626817
11
39.9975641
21
14.2626817
0
LINE
8
DEFAULT_4_2_778
10
72.2436569
20
32.2460796
11
72.2436569
21
26.0449079
0
LINE
8
DEFAULT_4_2_778
10
72.2436503
20
29.1454938
11
75.3442362
21
29.1454938
0
LINE
8
DEFAULT_4_2_778
10
38.7573231
20
61.3915866
11
43.7182605
21
61.3915866
0
LINE
8
DEFAULT_4_2_778
10
41.2377984
20
64.4921923
11
41.2377984
21
61.3916065
0
LINE
8
DEFAULT_4_2_778
10
38.7573298
20
-1.8603449
11
43.7182671
21
-1.8603449
0
LINE
8
DEFAULT_4_2_778
10
41.2377984
20
-1.8603449
11
41.2377984
21
-4.9609307
0
LINE
8
DEFAULT_255_2_778
10
29.455559
20
20.4638534
11
34.4164963
21
20.4638534
0
LINE
8
DEFAULT_255_2_778
10
34.4164963
20
20.4638534
11
32.0153994
21
21.7040877
0
LINE
8
DEFAULT_255_2_778
10
32.0153994
20
21.7040877
11
32.0153994
21
19.223619
0
LINE
8
DEFAULT_255_2_778
10
32.0153994
20
19.223619
11
34.4164963
21
20.4638534
0
LINE
8
DEFAULT_255_2_778
10
13.3325125
20
20.4638534
11
18.2934499
21
20.4638534
0
LINE
8
DEFAULT_255_2_778
10
18.2934499
20
20.4638534
11
15.8923601
21
21.7040877
0
LINE
8
DEFAULT_255_2_778
10
15.8923601
20
21.7040877
11
15.8923601
21
19.223619
0
LINE
8
DEFAULT_255_2_778
10
15.8923601
20
19.223619
11
18.2934499
21
20.4638534
0
LINE
8
DEFAULT_255_2_778
10
13.9526429
20
-1.8603515
11
13.9526429
21
14.4177242
0
LINE
8
DEFAULT_255_2_778
10
13.9526429
20
61.3915999
11
13.9526429
21
44.0283191
0
LINE
8
DEFAULT_4_2_778
10
10.8520571
20
61.3916131
11
17.0532288
21
61.3916131
0
LINE
8
DEFAULT_4_2_778
10
13.9526429
20
64.4921923
11
13.9526429
21
61.3916065
0
LINE
8
DEFAULT_4_2_778
10
10.8520571
20
-1.8603449
11
17.0532288
21
-1.8603449
0
LINE
8
DEFAULT_4_2_778
10
13.9526429
20
-1.8603449
11
13.9526429
21
-4.9609307
0
LINE
8
DEFAULT_255_2_778
10
4.0307682
20
44.0283059
11
23.8745177
21
44.0283059
0
LINE
8
DEFAULT_255_2_778
10
23.8745177
20
44.0283059
11
23.8745177
21
14.2626817
0
LINE
8
DEFAULT_255_2_778
10
23.8745177
20
14.2626817
11
4.0307682
21
14.2626817
0
LINE
8
DEFAULT_255_2_778
10
4.0307682
20
14.2626817
11
4.0307682
21
44.0283059
0
ARC
8
0
10
13.949743
20
44.0312237
40
1.2373378
50
147.4065042
51
180.1338866
0
ARC
8
0
10
13.9492784
20
44.0317097
40
1.2366845
50
96.4510911
51
147.4138807
0
ARC
8
0
10
13.9523577
20
44.0043139
40
1.2642529
50
89.9870721
51
96.4502643
0
ARC
8
0
10
13.9555338
20
44.0312314
40
1.2373387
50
57.4065306
51
90.1338625
0
ARC
8
0
10
13.9560208
20
44.0316971
40
1.236684
50
6.4510914
51
57.4139155
0
ARC
8
0
10
13.9286193
20
44.0286176
40
1.2642581
50
359.987072
51
6.450246
0
ARC
8
0
10
13.9555429
20
44.025441
40
1.2373378
50
327.4065042
51
0.1338866
0
ARC
8
0
10
13.9560075
20
44.0249549
40
1.2366845
50
276.4510911
51
327.4138807
0
ARC
8
0
10
13.9529282
20
44.0523508
40
1.2642529
50
269.9870721
51
276.4502643
0
ARC
8
0
10
13.9497521
20
44.0254333
40
1.2373387
50
237.4065306
51
270.1338625
0
ARC
8
0
10
13.9492651
20
44.0249675
40
1.236684
50
186.4510914
51
237.4139155
0
ARC
8
0
10
13.9766666
20
44.0280471
40
1.2642581
50
179.987072
51
186.450246
0
LINE
8
DEFAULT_255_2_778
10
12.7124086
20
44.0283323
11
12.7124086
21
44.0283323
0
ARC
8
0
10
13.9497418
20
14.2655725
40
1.2373366
50
147.4064861
51
180.1338596
0
ARC
8
0
10
13.9492801
20
14.2660575
40
1.2366863
50
96.4511647
51
147.4138983
0
ARC
8
0
10
13.9523577
20
14.2386632
40
1.2642529
50
89.9870721
51
96.4502643
0
ARC
8
0
10
13.9555334
20
14.2655826
40
1.2373368
50
57.4064552
51
90.1338443
0
ARC
8
0
10
13.9560188
20
14.2660447
40
1.2366862
50
6.4511465
51
57.4138698
0
ARC
8
0
10
13.9286261
20
14.2629669
40
1.2642513
50
359.9870722
51
6.4502645
0
ARC
8
0
10
13.9555441
20
14.2597909
40
1.2373366
50
327.4064861
51
0.1338596
0
ARC
8
0
10
13.9560057
20
14.2593059
40
1.2366863
50
276.4511647
51
327.4138983
0
ARC
8
0
10
13.9529282
20
14.2867002
40
1.2642529
50
269.9870721
51
276.4502643
0
ARC
8
0
10
13.9497525
20
14.2597807
40
1.2373368
50
237.4064552
51
270.1338443
0
ARC
8
0
10
13.9492671
20
14.2593187
40
1.2366862
50
186.4511465
51
237.4138698
0
ARC
8
0
10
13.9766598
20
14.2623964
40
1.2642513
50
179.9870722
51
186.4502645
0
LINE
8
DEFAULT_255_2_778
10
12.7124086
20
14.2626817
11
12.7124086
21
14.2626817
0
LINE
8
DEFAULT_255_2_778
10
12.7124086
20
39.0673817
11
12.7124086
21
32.86621
0
LINE
8
DEFAULT_255_2_778
10
15.1928773
20
32.86621
11
15.1928773
21
39.0673817
0
LINE
8
DEFAULT_255_2_778
10
13.9526363
20
40.3076161
11
18.2934565
21
35.9667959
0
LINE
8
DEFAULT_255_2_778
10
18.2934565
20
35.9667959
11
13.9526363
21
31.6259757
0
LINE
8
DEFAULT_255_2_778
10
13.9526363
20
31.6259757
11
9.6118161
21
35.9667959
0
LINE
8
DEFAULT_255_2_778
10
9.6118161
20
35.9667959
11
13.9526363
21
40.3076161
0
LINE
8
DEFAULT_255_2_778
10
32.5561514
20
39.0673817
11
32.5561514
21
32.86621
0
LINE
8
DEFAULT_255_2_778
10
35.0366201
20
32.86621
11
35.0366201
21
39.0673817
0
LINE
8
DEFAULT_255_2_778
10
33.7963924
20
40.3076161
11
38.1372126
21
35.9667959
0
LINE
8
DEFAULT_255_2_778
10
38.1372126
20
35.9667959
11
33.7963924
21
31.6259757
0
LINE
8
DEFAULT_255_2_778
10
33.7963924
20
31.6259757
11
29.4555722
21
35.9667959
0
LINE
8
DEFAULT_255_2_778
10
29.4555722
20
35.9667959
11
33.7963924
21
40.3076161
0
ENDSEC
0
EOF