0
SECTION
2
HEADER
0
ENDSEC
0
SECTION
2
TABLES
0
TABLE
2
LTYPE
0
LTYPE
72
65
70
64
2
CONTINUOUS
3
______
73
0
40
0
0
LTYPE
72
65
70
64
2
DASH_DEFAULT_255_2_778_064_085
3
______
73
2
40
2
49
-0.19921568073322585
49
0.2645833259738156
0
ENDTAB
0
TABLE
2
LAYER
0
LAYER
2
DEFAULT_255_2_778
70
0
62
255
6
CONTINUOUS
0
LAYER
2
DEFAULT_255_2_778_064_085
70
0
62
255
6
DASH_DEFAULT_255_2_778_064_085
0
LAYER
2
DEFAULT_4_2_778
70
0
62
4
6
CONTINUOUS
0
ENDTAB
0
ENDSEC
0
SECTION
2
ENTITIES
0
LINE
8
DEFAULT_255_2_778
10
8.0615232
20
44.0283323
11
16.7431636
21
44.0283323
0
ARC
8
0
10
19.2311915
20
44.0319379
40
2.4880173
50
159.6502896
51
180.0830307
0
ARC
8
0
10
19.2180329
20
44.0335345
40
2.4751266
50
100.665584
51
159.5790182
0
ARC
8
0
10
19.2222863
20
43.9960087
40
2.5127928
50
89.9690089
51
100.6025338
0
ARC
8
0
10
19.2272525
20
44.0207914
40
2.4880122
50
69.650242
51
90.0830651
0
ARC
8
0
10
19.2288474
20
44.033945
40
2.4751268
50
10.6655563
51
69.5789721
0
ARC
8
0
10
19.191308
20
44.0296902
40
2.5128066
50
359.9690376
51
10.6024783
0
ARC
8
0
10
19.2160995
20
44.0247268
40
2.4880173
50
339.6502896
51
0.0830307
0
ARC
8
0
10
19.2292581
20
44.0231301
40
2.4751266
50
280.665584
51
339.5790182
0
ARC
8
0
10
19.2250047
20
44.0606559
40
2.5127928
50
269.9690089
51
280.6025338
0
ARC
8
0
10
19.2200385
20
44.0358732
40
2.4880122
50
249.650242
51
270.0830651
0
ARC
8
0
10
19.2184436
20
44.0227197
40
2.4751268
50
190.6655563
51
249.5789721
0
ARC
8
0
10
19.255983
20
44.0269744
40
2.5128066
50
179.9690376
51
190.6024783
0
LINE
8
DEFAULT_255_2_778
10
16.7431768
20
44.0283323
11
16.7431768
21
44.0283323
0
ARC
8
0
10
39.074935
20
44.0319384
40
2.4880113
50
159.6502517
51
180.0830432
0
ARC
8
0
10
39.0617842
20
44.0335325
40
2.4751289
50
100.6656049
51
159.5789863
0
ARC
8
0
10
39.066036
20
43.9960128
40
2.5127887
50
89.9690126
51
100.6025422
0
ARC
8
0
10
39.0710013
20
44.0208022
40
2.4880014
50
69.650195
51
90.0830511
0
ARC
8
0
10
39.0725913
20
44.0339394
40
2.4751331
50
10.6656592
51
69.578949
0
ARC
8
0
10
39.0350805
20
44.0296913
40
2.5127836
50
359.969013
51
10.6025519
0
ARC
8
0
10
39.0598608
20
44.0247268
40
2.4880054
50
339.6501883
51
0.0830304
0
ARC
8
0
10
39.0730017
20
44.0231365
40
2.4751337
50
280.6656521
51
339.5789204
0
ARC
8
0
10
39.0687538
20
44.0606427
40
2.5127795
50
269.9690166
51
280.6025603
0
ARC
8
0
10
39.0637881
20
44.0358693
40
2.4880082
50
249.6502233
51
270.0830605
0
ARC
8
0
10
39.0621952
20
44.0227216
40
2.4751291
50
190.6655924
51
249.5789596
0
ARC
8
0
10
39.0997325
20
44.0269744
40
2.5128066
50
179.9690377
51
190.6024784
0
LINE
8
DEFAULT_255_2_778
10
36.5869263
20
44.0283323
11
36.5869263
21
44.0283323
0
LINE
8
DEFAULT_255_2_778
10
8.0615232
20
19.223619
11
16.7431636
21
19.223619
0
ARC
8
0
10
19.2311943
20
19.2272248
40
2.4880201
50
159.6502992
51
180.0830355
0
ARC
8
0
10
19.2180311
20
19.228823
40
2.4751246
50
100.6655505
51
159.5790236
0
ARC
8
0
10
19.2222874
20
19.1912723
40
2.5128158
50
89.9690336
51
100.6024604
0
ARC
8
0
10
19.227252
20
19.2160722
40
2.4880182
50
69.65028
51
90.0830526
0
ARC
8
0
10
19.2288495
20
19.2292336
40
2.4751246
50
10.6655354
51
69.5790041
0
ARC
8
0
10
19.1913029
20
19.224977
40
2.5128117
50
359.9690373
51
10.6024688
0
ARC
8
0
10
19.2160967
20
19.2200133
40
2.4880201
50
339.6502992
51
0.0830355
0
ARC
8
0
10
19.2292599
20
19.2184151
40
2.4751246
50
280.6655505
51
339.5790236
0
ARC
8
0
10
19.2250036
20
19.2559658
40
2.5128158
50
269.9690336
51
280.6024604
0
ARC
8
0
10
19.220039
20
19.2311659
40
2.4880182
50
249.65028
51
270.0830526
0
ARC
8
0
10
19.2184415
20
19.2180045
40
2.4751246
50
190.6655354
51
249.5790041
0
ARC
8
0
10
19.2559881
20
19.2222611
40
2.5128117
50
179.9690373
51
190.6024688
0
LINE
8
DEFAULT_255_2_778
10
16.7431768
20
19.223619
11
16.7431768
21
19.223619
0
ARC
8
0
10
39.0749378
20
19.2272253
40
2.4880142
50
159.6502613
51
180.083048
0
ARC
8
0
10
39.0617824
20
19.2288209
40
2.4751269
50
100.6655715
51
159.5789916
0
ARC
8
0
10
39.066037
20
19.1912764
40
2.5128117
50
89.9690373
51
100.6024689
0
ARC
8
0
10
39.0710008
20
19.216083
40
2.4880074
50
69.650233
51
90.0830386
0
ARC
8
0
10
39.0725934
20
19.229228
40
2.4751309
50
10.6656383
51
69.5789809
0
ARC
8
0
10
39.0350753
20
19.224978
40
2.5127887
50
359.9690127
51
10.6025423
0
ARC
8
0
10
39.059858
20
19.2200133
40
2.4880083
50
339.6501978
51
0.0830351
0
ARC
8
0
10
39.0730035
20
19.2184215
40
2.4751317
50
280.6656187
51
339.5789257
0
ARC
8
0
10
39.0687527
20
19.2559526
40
2.5128025
50
269.9690414
51
280.6024869
0
ARC
8
0
10
39.0637887
20
19.2311619
40
2.4880142
50
249.6502613
51
270.083048
0
ARC
8
0
10
39.0621931
20
19.2180065
40
2.4751269
50
190.6655715
51
249.5789916
0
ARC
8
0
10
39.0997377
20
19.2222611
40
2.5128117
50
179.9690373
51
190.6024689
0
LINE
8
DEFAULT_255_2_778
10
36.5869263
20
19.223619
11
36.5869263
21
19.223619
0
LINE
8
DEFAULT_255_2_778
10
8.0615232
20
-5.5810678
11
16.7431636
21
-5.5810678
0
ARC
8
0
10
19.2311943
20
-5.577462
40
2.4880201
50
159.6502992
51
180.0830355
0
ARC
8
0
10
19.2180311
20
-5.5758638
40
2.4751246
50
100.6655505
51
159.5790236
0
ARC
8
0
10
19.2222874
20
-5.6134145
40
2.5128158
50
89.9690336
51
100.6024604
0
ARC
8
0
10
19.227252
20
-5.5886146
40
2.4880182
50
69.65028
51
90.0830526
0
ARC
8
0
10
19.2288495
20
-5.5754532
40
2.4751246
50
10.6655354
51
69.5790041
0
ARC
8
0
10
19.1913029
20
-5.5797098
40
2.5128117
50
359.9690373
51
10.6024688
0
ARC
8
0
10
19.2160967
20
-5.5846735
40
2.4880201
50
339.6502992
51
0.0830355
0
ARC
8
0
10
19.2292599
20
-5.5862717
40
2.4751246
50
280.6655505
51
339.5790236
0
ARC
8
0
10
19.2250036
20
-5.548721
40
2.5128158
50
269.9690336
51
280.6024604
0
ARC
8
0
10
19.220039
20
-5.5735209
40
2.4880182
50
249.65028
51
270.0830526
0
ARC
8
0
10
19.2184415
20
-5.5866823
40
2.4751246
50
190.6655354
51
249.5790041
0
ARC
8
0
10
19.2559881
20
-5.5824257
40
2.5128117
50
179.9690373
51
190.6024688
0
LINE
8
DEFAULT_255_2_778
10
16.7431768
20
-5.5810678
11
16.7431768
21
-5.5810678
0
ARC
8
0
10
39.0749378
20
-5.5774615
40
2.4880142
50
159.6502613
51
180.083048
0
ARC
8
0
10
39.0617824
20
-5.5758659
40
2.4751269
50
100.6655715
51
159.5789916
0
ARC
8
0
10
39.066037
20
-5.6134105
40
2.5128117
50
89.9690373
51
100.6024689
0
ARC
8
0
10
39.0710008
20
-5.5886038
40
2.4880074
50
69.650233
51
90.0830386
0
ARC
8
0
10
39.0725934
20
-5.5754588
40
2.4751309
50
10.6656383
51
69.5789809
0
ARC
8
0
10
39.0350753
20
-5.5797088
40
2.5127887
50
359.9690127
51
10.6025423
0
ARC
8
0
10
39.059858
20
-5.5846735
40
2.4880083
50
339.6501978
51
0.0830351
0
ARC
8
0
10
39.0730035
20
-5.5862653
40
2.4751317
50
280.6656187
51
339.5789257
0
ARC
8
0
10
39.0687527
20
-5.5487342
40
2.5128025
50
269.9690414
51
280.6024869
0
ARC
8
0
10
39.0637887
20
-5.5735249
40
2.4880142
50
249.6502613
51
270.083048
0
ARC
8
0
10
39.0621931
20
-5.5866803
40
2.4751269
50
190.6655715
51
249.5789916
0
ARC
8
0
10
39.0997377
20
-5.5824257
40
2.5128117
50
179.9690373
51
190.6024689
0
LINE
8
DEFAULT_255_2_778
10
36.5869263
20
-5.5810678
11
36.5869263
21
-5.5810678
0
ARC
8
0
10
27.2056823
20
25.2943229
40
26.4981033
50
63.4073847
51
67.0991242
0
ARC
8
0
10
28.0684584
20
27.3407082
40
24.2772763
50
67.0954551
51
71.3882891
0
ARC
8
0
10
28.67022
20
29.1304731
40
22.3890564
50
71.385941
51
76.3853962
0
ARC
8
0
10
29.0306921
20
30.6302812
40
20.8465399
50
76.3779855
51
83.0783531
0
ARC
8
0
10
29.1422379
20
31.4992198
40
19.9704924
50
83.0956114
51
89.990583
0
ARC
8
0
10
29.1549671
20
31.3694807
40
20.1002334
50
90.0269283
51
99.7966463
0
ARC
8
0
10
29.3704521
20
30.095186
40
21.3926118
50
99.7846454
51
105.6533314
0
ARC
8
0
10
29.8298108
20
28.451003
40
23.0997575
50
105.6500937
51
110.4664189
0
ARC
8
0
10
30.5338254
20
26.5563693
40
25.1209617
50
110.4598064
51
114.3603624
0
ARC
8
0
10
31.2857997
20
24.8758508
40
26.9620337
50
114.3430534
51
116.5754253
0
ARC
8
0
10
27.2056823
20
0.489636
40
26.4981033
50
63.4073847
51
67.0991242
0
ARC
8
0
10
28.0684584
20
2.5360214
40
24.2772763
50
67.0954551
51
71.3882891
0
ARC
8
0
10
28.67022
20
4.3257863
40
22.3890564
50
71.385941
51
76.3853962
0
ARC
8
0
10
29.0306921
20
5.8255943
40
20.8465399
50
76.3779855
51
83.0783531
0
ARC
8
0
10
29.1422379
20
6.694533
40
19.9704924
50
83.0956114
51
89.990583
0
ARC
8
0
10
29.1549671
20
6.5647939
40
20.1002334
50
90.0269283
51
99.7966463
0
ARC
8
0
10
29.3704521
20
5.2904992
40
21.3926118
50
99.7846454
51
105.6533314
0
ARC
8
0
10
29.8298108
20
3.6463162
40
23.0997575
50
105.6500937
51
110.4664189
0
ARC
8
0
10
30.5338254
20
1.7516825
40
25.1209617
50
110.4598064
51
114.3603624
0
ARC
8
0
10
31.2857997
20
0.071164
40
26.9620337
50
114.3430534
51
116.5754253
0
ARC
8
0
10
27.2056823
20
-24.3150508
40
26.4981033
50
63.4073847
51
67.0991242
0
ARC
8
0
10
28.0684584
20
-22.2686654
40
24.2772763
50
67.0954551
51
71.3882891
0
ARC
8
0
10
28.67022
20
-20.4789005
40
22.3890564
50
71.385941
51
76.3853962
0
ARC
8
0
10
29.0306921
20
-18.9790925
40
20.8465399
50
76.3779855
51
83.0783531
0
ARC
8
0
10
29.1422379
20
-18.1101538
40
19.9704924
50
83.0956114
51
89.990583
0
ARC
8
0
10
29.1549671
20
-18.2398929
40
20.1002334
50
90.0269283
51
99.7966463
0
ARC
8
0
10
29.3704521
20
-19.5141876
40
21.3926118
50
99.7846454
51
105.6533314
0
ARC
8
0
10
29.8298108
20
-21.1583706
40
23.0997575
50
105.6500937
51
110.4664189
0
ARC
8
0
10
30.5338254
20
-23.0530043
40
25.1209617
50
110.4598064
51
114.3603624
0
ARC
8
0
10
31.2857997
20
-24.7335228
40
26.9620337
50
114.3430534
51
116.5754253
0
LINE
8
DEFAULT_255_2_778_064_085
10
29.1455202
20
50.2294908
11
29.1455202
21
1.8603515
0
LINE
8
DEFAULT_255_2_778
10
71.3134878
20
44.0221057
11
62.6318474
21
44.0283059
0
LINE
8
DEFAULT_255_2_778
10
62.6318474
20
44.0283059
11
60.1513787
21
40.3076028
0
LINE
8
DEFAULT_255_2_778
10
60.1513787
20
40.3076028
11
56.4306757
21
47.7490089
0
LINE
8
DEFAULT_255_2_778
10
56.4306757
20
47.7490089
11
53.950207
21
44.0283059
0
LINE
8
DEFAULT_255_2_778
10
53.950207
20
44.0283059
11
41.5478636
21
44.0221057
0
LINE
8
DEFAULT_255_2_778
10
70.6933706
20
19.1901303
11
62.6318474
21
19.223619
0
LINE
8
DEFAULT_255_2_778
10
62.6318474
20
19.223619
11
60.1513787
21
15.502916
0
LINE
8
DEFAULT_255_2_778
10
60.1513787
20
15.502916
11
56.4306757
21
22.9443221
0
LINE
8
DEFAULT_255_2_778
10
56.4306757
20
22.9443221
11
53.950207
21
19.223619
0
LINE
8
DEFAULT_255_2_778
10
53.950207
20
19.223619
11
41.5478636
21
19.1901303
0
LINE
8
DEFAULT_255_2_778
10
70.6933706
20
-5.6405966
11
62.6318474
21
-5.5810678
0
LINE
8
DEFAULT_255_2_778
10
62.6318474
20
-5.5810678
11
60.1513787
21
-9.3017708
0
LINE
8
DEFAULT_255_2_778
10
60.1513787
20
-9.3017708
11
56.4306757
21
-1.8603647
0
LINE
8
DEFAULT_255_2_778
10
56.4306757
20
-1.8603647
11
53.950207
21
-5.5810678
0
LINE
8
DEFAULT_255_2_778
10
53.950207
20
-5.5810678
11
41.5478636
21
-5.6405966
0
LINE
8
DEFAULT_4_2_778
10
71.3134878
20
47.1289182
11
71.3134878
21
40.9277465
0
LINE
8
DEFAULT_4_2_778
10
71.313468
20
44.0283257
11
74.4140538
21
44.0283257
0
LINE
8
DEFAULT_4_2_778
10
71.313468
20
22.3242247
11
71.313468
21
16.123053
0
LINE
8
DEFAULT_4_2_778
10
71.313468
20
19.2236389
11
74.4140538
21
19.2236389
0
LINE
8
DEFAULT_4_2_778
10
71.313468
20
-2.4804621
11
71.313468
21
-8.6816338
0
LINE
8
DEFAULT_4_2_778
10
71.3134812
20
-5.5810678
11
74.414067
21
-5.5810678
0
LINE
8
DEFAULT_4_2_778
10
8.0615298
20
-2.4804819
11
8.0615298
21
-8.6816536
0
LINE
8
DEFAULT_4_2_778
10
4.960944
20
-5.5810611
11
8.0615298
21
-5.5810611
0
LINE
8
DEFAULT_4_2_778
10
8.0615298
20
22.3242115
11
8.0615298
21
16.1230398
0
LINE
8
DEFAULT_4_2_778
10
4.960944
20
19.2236257
11
8.0615298
21
19.2236257
0
LINE
8
DEFAULT_4_2_778
10
8.0615298
20
47.1288983
11
8.0615298
21
40.9277266
0
LINE
8
DEFAULT_4_2_778
10
4.960944
20
44.0283323
11
8.0615298
21
44.0283323
0
ENDSEC
0
EOF