0
SECTION
2
HEADER
0
ENDSEC
0
SECTION
2
TABLES
0
TABLE
2
LTYPE
0
LTYPE
72
65
70
64
2
CONTINUOUS
3
______
73
0
40
0
0
LTYPE
72
65
70
64
2
DASH_DEFAULT_255_2_778_064_085
3
______
73
2
40
2
49
-0.19921568073322585
49
0.2645833259738156
0
ENDTAB
0
TABLE
2
LAYER
0
LAYER
2
DEFAULT_255_2_778
70
0
62
255
6
CONTINUOUS
0
LAYER
2
DEFAULT_255_2_778_064_085
70
0
62
255
6
DASH_DEFAULT_255_2_778_064_085
0
LAYER
2
DEFAULT_4_2_778
70
0
62
4
6
CONTINUOUS
0
ENDTAB
0
ENDSEC
0
SECTION
2
ENTITIES
0
LINE
8
DEFAULT_255_2_778
10
8.0615232
20
44.0283059
11
14.2626949
21
44.0283059
0
ARC
8
0
10
16.7507229
20
44.0319114
40
2.4880174
50
159.6502893
51
180.0830306
0
ARC
8
0
10
16.7375651
20
44.0335069
40
2.4751278
50
100.6655936
51
159.5789981
0
ARC
8
0
10
16.7418178
20
43.9959827
40
2.5127923
50
89.9690125
51
100.6025329
0
ARC
8
0
10
16.7467838
20
44.0207649
40
2.4880122
50
69.650242
51
90.0830651
0
ARC
8
0
10
16.7483787
20
44.0339185
40
2.4751268
50
10.6655563
51
69.5789721
0
ARC
8
0
10
16.7108393
20
44.0296638
40
2.5128066
50
359.9690376
51
10.6024783
0
ARC
8
0
10
16.7356308
20
44.0247003
40
2.4880173
50
339.6502896
51
0.0830307
0
ARC
8
0
10
16.7487895
20
44.0231036
40
2.4751266
50
280.665584
51
339.5790182
0
ARC
8
0
10
16.744536
20
44.0606295
40
2.5127928
50
269.9690089
51
280.6025338
0
ARC
8
0
10
16.7395698
20
44.0358445
40
2.48801
50
249.6502321
51
270.0830645
0
ARC
8
0
10
16.7379758
20
44.0226939
40
2.4751276
50
190.6655688
51
249.5789679
0
ARC
8
0
10
16.7755144
20
44.026948
40
2.5128066
50
179.9690376
51
190.6024784
0
LINE
8
DEFAULT_255_2_778
10
14.2627081
20
44.0283059
11
14.2627081
21
44.0283059
0
ARC
8
0
10
31.6335349
20
44.0319114
40
2.4880173
50
159.6502896
51
180.0830307
0
ARC
8
0
10
31.6203763
20
44.0335081
40
2.4751266
50
100.665584
51
159.5790182
0
ARC
8
0
10
31.6246298
20
43.9959823
40
2.5127928
50
89.9690089
51
100.6025338
0
ARC
8
0
10
31.6295959
20
44.0207649
40
2.4880122
50
69.650242
51
90.0830651
0
ARC
8
0
10
31.6311908
20
44.0339185
40
2.4751268
50
10.6655563
51
69.5789721
0
ARC
8
0
10
31.5936514
20
44.0296638
40
2.5128066
50
359.9690376
51
10.6024783
0
ARC
8
0
10
31.6184429
20
44.0247003
40
2.4880173
50
339.6502896
51
0.0830307
0
ARC
8
0
10
31.6316015
20
44.0231036
40
2.4751266
50
280.665584
51
339.5790182
0
ARC
8
0
10
31.6273481
20
44.0606295
40
2.5127928
50
269.9690089
51
280.6025338
0
ARC
8
0
10
31.6223819
20
44.0358468
40
2.4880122
50
249.650242
51
270.0830651
0
ARC
8
0
10
31.620787
20
44.0226932
40
2.4751268
50
190.6655563
51
249.5789721
0
ARC
8
0
10
31.6583264
20
44.0269479
40
2.5128066
50
179.9690376
51
190.6024783
0
LINE
8
DEFAULT_255_2_778
10
29.1455202
20
44.0283059
11
29.1455202
21
44.0283059
0
ARC
8
0
10
44.0394685
20
43.3953346
40
3.1134598
50
78.8094245
51
90.2049355
0
ARC
8
0
10
44.1601282
20
43.9889421
40
2.5077237
50
63.1703993
51
78.8816777
0
ARC
8
0
10
44.3285568
20
44.3236707
40
2.1330095
50
22.1972903
51
63.1494975
0
ARC
8
0
10
43.9023571
20
44.1371891
40
2.5981012
50
9.2125303
51
22.4540794
0
ARC
8
0
10
43.3105907
20
44.0373354
40
3.1982231
50
359.8382366
51
9.2810665
0
ARC
8
0
10
43.3270398
20
44.0183815
40
3.1817767
50
350.2224888
51
0.178713
0
ARC
8
0
10
43.926557
20
43.9124958
40
2.5729871
50
336.759424
51
350.2789623
0
ARC
8
0
10
44.3143409
20
43.7423008
40
2.1495145
50
312.0941927
51
336.849199
0
ARC
8
0
10
44.2696382
20
43.8167015
40
2.2347519
50
288.8704227
51
311.6659418
0
ARC
8
0
10
44.0943819
20
44.306555
40
2.7549698
50
275.9445372
51
289.0244028
0
ARC
8
0
10
44.0319464
20
44.8142343
40
3.2663992
50
269.9366048
51
276.1115553
0
ARC
8
0
10
44.0174476
20
44.6689337
40
3.1211155
50
258.9778269
51
270.1998154
0
ARC
8
0
10
43.8978158
20
44.0731642
40
2.5134661
50
243.3363206
51
259.0580791
0
ARC
8
0
10
43.7268383
20
43.7316202
40
2.1315169
50
202.2544524
51
243.3235877
0
ARC
8
0
10
44.1533105
20
43.9184887
40
2.5970177
50
189.2286715
51
202.5067361
0
ARC
8
0
10
44.7490059
20
44.0191925
40
3.2011552
50
179.8368837
51
189.2978589
0
LINE
8
DEFAULT_255_2_778
10
41.5478636
20
44.0283059
11
34.1064576
21
44.0283059
0
ARC
8
0
10
48.0561665
20
44.0396689
40
3.4135908
50
359.8092748
51
9.0892547
0
ARC
8
0
10
48.8008203
20
44.1616615
40
2.6590172
50
9.0283674
51
21.4848449
0
ARC
8
0
10
49.3099276
20
44.3673825
40
2.1099449
50
21.3500692
51
43.1880601
0
ARC
8
0
10
49.3463221
20
44.3772422
40
2.076737
50
43.6769322
51
67.3846406
0
ARC
8
0
10
49.1383865
20
43.8947838
40
2.602066
50
67.243256
51
80.0342898
0
ARC
8
0
10
49.0071164
20
43.1682367
40
3.3403699
50
79.9733286
51
89.4586807
0
ARC
8
0
10
48.9893755
20
42.6727076
40
3.8360668
50
89.2636378
51
90.0015813
0
ARC
8
0
10
48.9779135
20
43.0910846
40
3.4177089
50
89.809621
51
99.0452828
0
ARC
8
0
10
48.856061
20
43.8383233
40
2.6606071
50
98.9836925
51
111.4100785
0
ARC
8
0
10
48.6522695
20
44.3456953
40
2.1138605
50
111.287649
51
132.5981358
0
ARC
8
0
10
48.6393379
20
44.3860213
40
2.075499
50
133.0888477
51
157.5184267
0
ARC
8
0
10
49.1280102
20
44.1757071
40
2.6074655
50
157.3542992
51
170.080663
0
ARC
8
0
10
49.8532827
20
44.0454437
40
3.3443373
50
170.0227639
51
179.5358811
0
ARC
8
0
10
50.3449792
20
44.0283722
40
3.8361782
50
179.3404025
51
180.0009906
0
ARC
8
0
10
49.9223772
20
44.0169428
40
3.4135951
50
179.8092749
51
189.0892478
0
ARC
8
0
10
49.1777163
20
43.8949489
40
2.6590143
50
189.0283548
51
201.4848487
0
ARC
8
0
10
48.6686116
20
43.6892287
40
2.1099448
50
201.3500689
51
223.1880599
0
ARC
8
0
10
48.6322145
20
43.6793659
40
2.0767328
50
223.6769211
51
247.3846753
0
ARC
8
0
10
48.8401528
20
44.1618277
40
2.6020659
50
247.2432561
51
260.0342899
0
ARC
8
0
10
48.9714229
20
44.888375
40
3.3403699
50
259.9733287
51
269.4586807
0
ARC
8
0
10
48.9891638
20
45.3839041
40
3.8360668
50
269.2636378
51
270.0015813
0
LINE
8
DEFAULT_255_2_778
10
71.3134878
20
44.0283059
11
66.3525504
21
44.0283059
0
LINE
8
DEFAULT_255_2_778
10
66.3525504
20
44.0283059
11
63.8720818
21
40.3076028
0
LINE
8
DEFAULT_255_2_778
10
63.8720818
20
40.3076028
11
61.3916131
21
47.7490089
0
LINE
8
DEFAULT_255_2_778
10
61.3916131
20
47.7490089
11
58.9111444
21
44.0283059
0
LINE
8
DEFAULT_255_2_778
10
58.9111444
20
44.0283059
11
51.4697384
21
44.0283059
0
ARC
8
0
10
21.9388268
20
29.8920993
40
22.0024749
50
60.221786
51
64.0189313
0
ARC
8
0
10
22.8851526
20
31.8371171
40
19.8394619
50
64.014966
51
68.3912506
0
ARC
8
0
10
23.5587558
20
33.5401248
40
18.0080756
50
68.3883928
51
73.4457646
0
ARC
8
0
10
23.987398
20
34.9906425
40
16.4955515
50
73.4373926
51
79.972995
0
ARC
8
0
10
24.1768083
20
36.0707888
40
15.3989251
50
79.9672293
51
89.9710727
0
ARC
8
0
10
24.1939729
20
36.0431518
40
15.426563
50
90.0348753
51
100.6767758
0
ARC
8
0
10
24.4115062
20
34.8673158
40
16.6223454
50
100.6627202
51
107.1387796
0
ARC
8
0
10
24.8723583
20
33.3635383
40
18.1951533
50
107.1300994
51
112.1598301
0
ARC
8
0
10
25.5450346
20
31.7025644
40
19.987168
50
112.1497507
51
116.0865152
0
ARC
8
0
10
26.4454109
20
29.8643622
40
22.0340349
50
116.0874183
51
119.7764101
0
ARC
8
0
10
21.9388268
20
5.0874125
40
22.0024749
50
60.221786
51
64.0189313
0
ARC
8
0
10
22.8851526
20
7.0324303
40
19.8394619
50
64.014966
51
68.3912506
0
ARC
8
0
10
23.5587558
20
8.735438
40
18.0080756
50
68.3883928
51
73.4457646
0
ARC
8
0
10
23.987398
20
10.1859557
40
16.4955515
50
73.4373926
51
79.972995
0
ARC
8
0
10
24.1768083
20
11.266102
40
15.3989251
50
79.9672293
51
89.9710727
0
ARC
8
0
10
24.1939729
20
11.238465
40
15.426563
50
90.0348753
51
100.6767758
0
ARC
8
0
10
24.4115062
20
10.062629
40
16.6223454
50
100.6627202
51
107.1387796
0
ARC
8
0
10
24.8723583
20
8.5588515
40
18.1951533
50
107.1300994
51
112.1598301
0
ARC
8
0
10
25.5450346
20
6.8978776
40
19.987168
50
112.1497507
51
116.0865152
0
ARC
8
0
10
26.4454109
20
5.0596753
40
22.0340349
50
116.0874183
51
119.7764101
0
ARC
8
0
10
21.9388268
20
-19.7172744
40
22.0024749
50
60.221786
51
64.0189313
0
ARC
8
0
10
22.8851526
20
-17.7722565
40
19.8394619
50
64.014966
51
68.3912506
0
ARC
8
0
10
23.5587558
20
-16.0692488
40
18.0080756
50
68.3883928
51
73.4457646
0
ARC
8
0
10
23.987398
20
-14.6187312
40
16.4955515
50
73.4373926
51
79.972995
0
ARC
8
0
10
24.1768083
20
-13.5385848
40
15.3989251
50
79.9672293
51
89.9710727
0
ARC
8
0
10
24.1939729
20
-13.5662219
40
15.426563
50
90.0348753
51
100.6767758
0
ARC
8
0
10
24.4115062
20
-14.7420578
40
16.6223454
50
100.6627202
51
107.1387796
0
ARC
8
0
10
24.8723583
20
-16.2458353
40
18.1951533
50
107.1300994
51
112.1598301
0
ARC
8
0
10
25.5450346
20
-17.9068092
40
19.987168
50
112.1497507
51
116.0865152
0
ARC
8
0
10
26.4454109
20
-19.7450115
40
22.0340349
50
116.0874183
51
119.7764101
0
LINE
8
DEFAULT_255_2_778_064_085
10
24.1845829
20
51.4697119
11
24.1845829
21
1.8603383
0
LINE
8
DEFAULT_4_2_778
10
71.3134878
20
47.1288917
11
71.3134878
21
40.92772
0
LINE
8
DEFAULT_4_2_778
10
71.313468
20
44.0283059
11
74.4140538
21
44.0283059
0
LINE
8
DEFAULT_255_2_778
10
8.0615232
20
19.223619
11
14.2626949
21
19.223619
0
ARC
8
0
10
16.7507258
20
19.2272248
40
2.4880202
50
159.6502989
51
180.0830353
0
ARC
8
0
10
16.7375633
20
19.2288218
40
2.4751258
50
100.6655602
51
159.5790034
0
ARC
8
0
10
16.7418189
20
19.1912727
40
2.5128154
50
89.9690372
51
100.6024595
0
ARC
8
0
10
16.7467833
20
19.2160722
40
2.4880182
50
69.65028
51
90.0830526
0
ARC
8
0
10
16.7483808
20
19.2292336
40
2.4751246
50
10.6655354
51
69.5790041
0
ARC
8
0
10
16.7108342
20
19.224977
40
2.5128117
50
359.9690373
51
10.6024688
0
ARC
8
0
10
16.735628
20
19.2200133
40
2.4880201
50
339.6502992
51
0.0830355
0
ARC
8
0
10
16.7487912
20
19.2184151
40
2.4751246
50
280.6655505
51
339.5790236
0
ARC
8
0
10
16.7445349
20
19.2559658
40
2.5128158
50
269.9690336
51
280.6024604
0
ARC
8
0
10
16.7395704
20
19.2311637
40
2.4880159
50
249.65027
51
270.083052
0
ARC
8
0
10
16.7379737
20
19.2180052
40
2.4751254
50
190.6655478
51
249.5789999
0
ARC
8
0
10
16.7755195
20
19.2222611
40
2.5128117
50
179.9690373
51
190.6024688
0
LINE
8
DEFAULT_255_2_778
10
14.2627081
20
19.223619
11
14.2627081
21
19.223619
0
ARC
8
0
10
31.6335377
20
19.2272248
40
2.4880201
50
159.6502992
51
180.0830355
0
ARC
8
0
10
31.6203745
20
19.228823
40
2.4751246
50
100.6655505
51
159.5790236
0
ARC
8
0
10
31.6246308
20
19.1912723
40
2.5128158
50
89.9690336
51
100.6024604
0
ARC
8
0
10
31.6295954
20
19.2160722
40
2.4880182
50
69.65028
51
90.0830526
0
ARC
8
0
10
31.6311929
20
19.2292336
40
2.4751246
50
10.6655354
51
69.5790041
0
ARC
8
0
10
31.5936463
20
19.224977
40
2.5128117
50
359.9690373
51
10.6024688
0
ARC
8
0
10
31.6184401
20
19.2200133
40
2.4880201
50
339.6502992
51
0.0830355
0
ARC
8
0
10
31.6316033
20
19.2184151
40
2.4751246
50
280.6655505
51
339.5790236
0
ARC
8
0
10
31.627347
20
19.2559658
40
2.5128158
50
269.9690336
51
280.6024604
0
ARC
8
0
10
31.6223824
20
19.2311659
40
2.4880182
50
249.65028
51
270.0830526
0
ARC
8
0
10
31.6207849
20
19.2180045
40
2.4751246
50
190.6655354
51
249.5790041
0
ARC
8
0
10
31.6583315
20
19.2222611
40
2.5128117
50
179.9690373
51
190.6024688
0
LINE
8
DEFAULT_255_2_778
10
29.1455202
20
19.223619
11
29.1455202
21
19.223619
0
ARC
8
0
10
44.039214
20
18.5829709
40
3.1211358
50
78.9778447
51
90.1997601
0
ARC
8
0
10
44.1588487
20
19.1787601
40
2.5134667
50
63.3363202
51
79.0580787
0
ARC
8
0
10
44.3298244
20
19.520303
40
2.1315189
50
22.254454
51
63.3235565
0
ARC
8
0
10
43.9033524
20
19.3334348
40
2.5970195
50
9.2286843
51
22.5067327
0
ARC
8
0
10
43.3076635
20
19.2327323
40
3.2011505
50
359.8368863
51
9.2978656
0
ARC
8
0
10
43.3234684
20
19.2136455
40
3.1853482
50
350.2279716
51
0.1793965
0
ARC
8
0
10
43.9254728
20
19.1074291
40
2.5740516
50
336.8025872
51
350.2835766
0
ARC
8
0
10
44.3144668
20
18.9371293
40
2.149428
50
312.3962552
51
336.8907323
0
ARC
8
0
10
44.2723879
20
19.0081305
40
2.2302976
50
288.9895497
51
311.9647248
0
ARC
8
0
10
44.0953531
20
19.4998027
40
2.7528284
50
275.9756194
51
289.143822
0
ARC
8
0
10
44.0320028
20
20.0120602
40
3.2689118
50
269.9356657
51
276.1452404
0
ARC
8
0
10
44.0171981
20
19.8565897
40
3.1134593
50
258.8093862
51
270.2048998
0
ARC
8
0
10
43.8965369
20
19.2629746
40
2.5077153
50
243.1702896
51
258.8816294
0
ARC
8
0
10
43.7281159
20
18.9282619
40
2.1330188
50
202.1973249
51
243.1493783
0
ARC
8
0
10
44.1543024
20
19.1147381
40
2.5980962
50
189.2125558
51
202.4541074
0
ARC
8
0
10
44.7460506
20
19.2145897
40
3.1981998
50
179.838239
51
189.2811028
0
LINE
8
DEFAULT_255_2_778
10
41.5478636
20
19.223619
11
34.1064576
21
19.223619
0
ARC
8
0
10
48.0561672
20
19.234982
40
3.4135901
50
359.8092773
51
9.0892541
0
ARC
8
0
10
48.8008209
20
19.3569745
40
2.6590165
50
9.0283677
51
21.4848451
0
ARC
8
0
10
49.3099245
20
19.5626937
40
2.1099484
50
21.3500786
51
43.1880341
0
ARC
8
0
10
49.3463236
20
19.572558
40
2.0767338
50
43.6769015
51
67.3846507
0
ARC
8
0
10
49.13839
20
19.0901118
40
2.6020508
50
67.2431995
51
80.0343091
0
ARC
8
0
10
49.0071164
20
18.3635498
40
3.3403699
50
79.9733286
51
89.4586806
0
ARC
8
0
10
48.9893755
20
17.8680208
40
3.8360668
50
89.2636378
51
90.0015813
0
ARC
8
0
10
48.9779135
20
18.2863977
40
3.4177089
50
89.809621
51
99.0452828
0
ARC
8
0
10
48.8560627
20
19.033637
40
2.6606068
50
98.9837301
51
111.4101174
0
ARC
8
0
10
48.6522706
20
19.5410082
40
2.1138611
50
111.2876755
51
132.5981582
0
ARC
8
0
10
48.639338
20
19.5813339
40
2.0754992
50
133.0888475
51
157.5184263
0
ARC
8
0
10
49.1280077
20
19.3710201
40
2.6074631
50
157.3542832
51
170.0806564
0
ARC
8
0
10
49.8532771
20
19.240757
40
3.3443316
50
170.0227554
51
179.5358838
0
ARC
8
0
10
50.3449767
20
19.2236854
40
3.8361757
50
179.3404025
51
180.0009906
0
ARC
8
0
10
49.9223722
20
19.2122561
40
3.4135901
50
179.8092773
51
189.0892541
0
ARC
8
0
10
49.1777184
20
19.0902636
40
2.6590165
50
189.0283677
51
201.4848451
0
ARC
8
0
10
48.6686149
20
18.8845444
40
2.1099484
50
201.3500786
51
223.1880341
0
ARC
8
0
10
48.6322157
20
18.8746801
40
2.0767338
50
223.6769015
51
247.3846507
0
ARC
8
0
10
48.8401494
20
19.3571263
40
2.6020508
50
247.2431995
51
260.0343091
0
ARC
8
0
10
48.9714229
20
20.0836883
40
3.3403699
50
259.9733286
51
269.4586806
0
ARC
8
0
10
48.9891638
20
20.5792173
40
3.8360668
50
269.2636378
51
270.0015813
0
LINE
8
DEFAULT_255_2_778
10
71.3134878
20
19.223619
11
66.3525504
21
19.223619
0
LINE
8
DEFAULT_255_2_778
10
66.3525504
20
19.223619
11
63.8720818
21
15.502916
0
LINE
8
DEFAULT_255_2_778
10
63.8720818
20
15.502916
11
61.3916131
21
22.9443221
0
LINE
8
DEFAULT_255_2_778
10
61.3916131
20
22.9443221
11
58.9111444
21
19.223619
0
LINE
8
DEFAULT_255_2_778
10
58.9111444
20
19.223619
11
51.4697384
21
19.223619
0
LINE
8
DEFAULT_255_2_778
10
8.0615232
20
-5.5810678
11
14.2626949
21
-5.5810678
0
ARC
8
0
10
16.7507258
20
-5.577462
40
2.4880202
50
159.6502989
51
180.0830353
0
ARC
8
0
10
16.7375633
20
-5.575865
40
2.4751258
50
100.6655602
51
159.5790034
0
ARC
8
0
10
16.7418189
20
-5.6134141
40
2.5128154
50
89.9690372
51
100.6024595
0
ARC
8
0
10
16.7467833
20
-5.5886146
40
2.4880182
50
69.65028
51
90.0830526
0
ARC
8
0
10
16.7483808
20
-5.5754532
40
2.4751246
50
10.6655354
51
69.5790041
0
ARC
8
0
10
16.7108342
20
-5.5797098
40
2.5128117
50
359.9690373
51
10.6024688
0
ARC
8
0
10
16.735628
20
-5.5846735
40
2.4880201
50
339.6502992
51
0.0830355
0
ARC
8
0
10
16.7487912
20
-5.5862717
40
2.4751246
50
280.6655505
51
339.5790236
0
ARC
8
0
10
16.7445349
20
-5.548721
40
2.5128158
50
269.9690336
51
280.6024604
0
ARC
8
0
10
16.7395704
20
-5.5735232
40
2.4880159
50
249.65027
51
270.083052
0
ARC
8
0
10
16.7379737
20
-5.5866816
40
2.4751254
50
190.6655478
51
249.5789999
0
ARC
8
0
10
16.7755195
20
-5.5824257
40
2.5128117
50
179.9690373
51
190.6024688
0
LINE
8
DEFAULT_255_2_778
10
14.2627081
20
-5.5810678
11
14.2627081
21
-5.5810678
0
ARC
8
0
10
31.6335377
20
-5.577462
40
2.4880201
50
159.6502992
51
180.0830355
0
ARC
8
0
10
31.6203745
20
-5.5758638
40
2.4751246
50
100.6655505
51
159.5790236
0
ARC
8
0
10
31.6246308
20
-5.6134145
40
2.5128158
50
89.9690336
51
100.6024604
0
ARC
8
0
10
31.6295954
20
-5.5886146
40
2.4880182
50
69.65028
51
90.0830526
0
ARC
8
0
10
31.6311929
20
-5.5754532
40
2.4751246
50
10.6655354
51
69.5790041
0
ARC
8
0
10
31.5936463
20
-5.5797098
40
2.5128117
50
359.9690373
51
10.6024688
0
ARC
8
0
10
31.6184401
20
-5.5846735
40
2.4880201
50
339.6502992
51
0.0830355
0
ARC
8
0
10
31.6316033
20
-5.5862717
40
2.4751246
50
280.6655505
51
339.5790236
0
ARC
8
0
10
31.627347
20
-5.548721
40
2.5128158
50
269.9690336
51
280.6024604
0
ARC
8
0
10
31.6223824
20
-5.5735209
40
2.4880182
50
249.65028
51
270.0830526
0
ARC
8
0
10
31.6207849
20
-5.5866823
40
2.4751246
50
190.6655354
51
249.5790041
0
ARC
8
0
10
31.6583315
20
-5.5824257
40
2.5128117
50
179.9690373
51
190.6024688
0
LINE
8
DEFAULT_255_2_778
10
29.1455202
20
-5.5810678
11
29.1455202
21
-5.5810678
0
ARC
8
0
10
44.0394666
20
-6.2140385
40
3.1134593
50
78.8093862
51
90.2048998
0
ARC
8
0
10
44.1601277
20
-5.6204233
40
2.5077153
50
63.1702896
51
78.8816294
0
ARC
8
0
10
44.3285487
20
-5.2857107
40
2.1330188
50
22.1973249
51
63.1493783
0
ARC
8
0
10
43.9023622
20
-5.4721868
40
2.5980962
50
9.2125558
51
22.4541074
0
ARC
8
0
10
43.310614
20
-5.5720384
40
3.1981998
50
359.838239
51
9.2811028
0
ARC
8
0
10
43.3270583
20
-5.5909919
40
3.1817582
50
350.2224595
51
0.1787104
0
ARC
8
0
10
43.9265563
20
-5.6968745
40
2.572988
50
336.7594152
51
350.2789294
0
ARC
8
0
10
44.3143326
20
-5.8670655
40
2.149524
50
312.0942651
51
336.8491713
0
ARC
8
0
10
44.2696346
20
-5.7926695
40
2.2347547
50
288.870496
51
311.6660033
0
ARC
8
0
10
44.0943826
20
-5.3028331
40
2.7549552
50
275.9445544
51
289.0244925
0
ARC
8
0
10
44.0319464
20
-4.7951393
40
3.2663991
50
269.9366048
51
276.1115553
0
ARC
8
0
10
44.0171981
20
-4.9480971
40
3.1134593
50
258.8093862
51
270.2048998
0
ARC
8
0
10
43.8965369
20
-5.5417123
40
2.5077153
50
243.1702896
51
258.8816294
0
ARC
8
0
10
43.7281159
20
-5.8764249
40
2.1330188
50
202.1973249
51
243.1493783
0
ARC
8
0
10
44.1543024
20
-5.6899487
40
2.5980962
50
189.2125558
51
202.4541074
0
ARC
8
0
10
44.7460506
20
-5.5900971
40
3.1981998
50
179.838239
51
189.2811028
0
LINE
8
DEFAULT_255_2_778
10
41.5478636
20
-5.5810678
11
34.1064576
21
-5.5810678
0
ARC
8
0
10
48.0561672
20
-5.5697048
40
3.4135901
50
359.8092773
51
9.0892541
0
ARC
8
0
10
48.8008209
20
-5.4477123
40
2.6590165
50
9.0283677
51
21.4848451
0
ARC
8
0
10
49.3099245
20
-5.2419932
40
2.1099484
50
21.3500786
51
43.1880341
0
ARC
8
0
10
49.3463236
20
-5.2321288
40
2.0767338
50
43.6769015
51
67.3846507
0
ARC
8
0
10
49.13839
20
-5.714575
40
2.6020508
50
67.2431995
51
80.0343091
0
ARC
8
0
10
49.0071164
20
-6.441137
40
3.3403699
50
79.9733286
51
89.4586806
0
ARC
8
0
10
48.9893755
20
-6.936666
40
3.8360668
50
89.2636378
51
90.0015813
0
ARC
8
0
10
48.9779135
20
-6.5182891
40
3.4177089
50
89.809621
51
99.0452828
0
ARC
8
0
10
48.8560627
20
-5.7710498
40
2.6606068
50
98.9837301
51
111.4101174
0
ARC
8
0
10
48.6522706
20
-5.2636786
40
2.1138611
50
111.2876755
51
132.5981582
0
ARC
8
0
10
48.639338
20
-5.2233529
40
2.0754992
50
133.0888475
51
157.5184263
0
ARC
8
0
10
49.1280077
20
-5.4336667
40
2.6074631
50
157.3542832
51
170.0806564
0
ARC
8
0
10
49.8532771
20
-5.5639298
40
3.3443316
50
170.0227554
51
179.5358838
0
ARC
8
0
10
50.3449767
20
-5.5810014
40
3.8361757
50
179.3404025
51
180.0009906
0
ARC
8
0
10
49.9223722
20
-5.5924307
40
3.4135901
50
179.8092773
51
189.0892541
0
ARC
8
0
10
49.1777184
20
-5.7144232
40
2.6590165
50
189.0283677
51
201.4848451
0
ARC
8
0
10
48.6686149
20
-5.9201424
40
2.1099484
50
201.3500786
51
223.1880341
0
ARC
8
0
10
48.6322157
20
-5.9300067
40
2.0767338
50
223.6769015
51
247.3846507
0
ARC
8
0
10
48.8401494
20
-5.4475605
40
2.6020508
50
247.2431995
51
260.0343091
0
ARC
8
0
10
48.9714229
20
-4.7209985
40
3.3403699
50
259.9733286
51
269.4586806
0
ARC
8
0
10
48.9891638
20
-4.2254695
40
3.8360668
50
269.2636378
51
270.0015813
0
LINE
8
DEFAULT_255_2_778
10
71.3134878
20
-5.5810678
11
66.3525504
21
-5.5810678
0
LINE
8
DEFAULT_255_2_778
10
66.3525504
20
-5.5810678
11
63.8720818
21
-9.3017708
0
LINE
8
DEFAULT_255_2_778
10
63.8720818
20
-9.3017708
11
61.3916131
21
-1.8603647
0
LINE
8
DEFAULT_255_2_778
10
61.3916131
20
-1.8603647
11
58.9111444
21
-5.5810678
0
LINE
8
DEFAULT_255_2_778
10
58.9111444
20
-5.5810678
11
51.4697384
21
-5.5810678
0
LINE
8
DEFAULT_4_2_778
10
8.0615364
20
-2.4804819
11
8.0615364
21
-8.6816536
0
LINE
8
DEFAULT_4_2_778
10
4.960944
20
-5.5810611
11
8.0615298
21
-5.5810611
0
LINE
8
DEFAULT_4_2_778
10
8.0615298
20
22.3242115
11
8.0615298
21
16.1230398
0
LINE
8
DEFAULT_4_2_778
10
4.960944
20
19.2236257
11
8.0615298
21
19.2236257
0
LINE
8
DEFAULT_4_2_778
10
8.0615298
20
47.1288983
11
8.0615298
21
40.9277266
0
LINE
8
DEFAULT_4_2_778
10
4.9609307
20
44.0283257
11
8.0615166
21
44.0283257
0
LINE
8
DEFAULT_4_2_778
10
71.313468
20
22.3242247
11
71.313468
21
16.123053
0
LINE
8
DEFAULT_4_2_778
10
71.313468
20
19.2236389
11
74.4140538
21
19.2236389
0
LINE
8
DEFAULT_4_2_778
10
71.313468
20
-2.4804621
11
71.313468
21
-8.6816338
0
LINE
8
DEFAULT_4_2_778
10
71.313468
20
-5.5810678
11
74.4140538
21
-5.5810678
0
ENDSEC
0
EOF