0
SECTION
2
HEADER
0
ENDSEC
0
SECTION
2
TABLES
0
TABLE
2
LTYPE
0
LTYPE
72
65
70
64
2
CONTINUOUS
3
______
73
0
40
0
0
ENDTAB
0
TABLE
2
LAYER
0
LAYER
2
DEFAULT_255_2_778
70
0
62
255
6
CONTINUOUS
0
LAYER
2
DEFAULT_4_2_778
70
0
62
4
6
CONTINUOUS
0
ENDTAB
0
ENDSEC
0
SECTION
2
ENTITIES
0
LINE
8
DEFAULT_255_2_778
10
8.0615232
20
42.1679676
11
29.145507
21
42.1679676
0
LINE
8
DEFAULT_255_2_778
10
71.3134746
20
42.1679676
11
50.2294908
21
42.1679676
0
LINE
8
DEFAULT_255_2_778
10
8.0615232
20
17.3632808
11
29.145507
21
17.3632808
0
LINE
8
DEFAULT_255_2_778
10
71.3134746
20
17.3632808
11
50.2294908
21
17.3632808
0
LINE
8
DEFAULT_255_2_778
10
8.0615232
20
-7.4414193
11
29.145507
21
-7.4414193
0
LINE
8
DEFAULT_255_2_778
10
71.3134746
20
-7.4414193
11
50.2294908
21
-7.4414193
0
LINE
8
DEFAULT_255_2_778
10
29.145507
20
45.8886574
11
50.2294908
21
45.8886574
0
LINE
8
DEFAULT_255_2_778
10
50.2294908
20
45.8886574
11
50.2294908
21
38.4472513
0
LINE
8
DEFAULT_255_2_778
10
50.2294908
20
38.4472513
11
29.145507
21
38.4472513
0
LINE
8
DEFAULT_255_2_778
10
29.145507
20
38.4472513
11
29.145507
21
45.8886574
0
LINE
8
DEFAULT_255_2_778
10
32.86621
20
45.8886706
11
32.86621
21
38.4472646
0
LINE
8
DEFAULT_255_2_778
10
46.5087878
20
45.8886706
11
46.5087878
21
38.4472646
0
LINE
8
DEFAULT_255_2_778
10
29.145507
20
21.0839838
11
50.2294908
21
21.0839838
0
LINE
8
DEFAULT_255_2_778
10
50.2294908
20
21.0839838
11
50.2294908
21
13.6425777
0
LINE
8
DEFAULT_255_2_778
10
50.2294908
20
13.6425777
11
29.145507
21
13.6425777
0
LINE
8
DEFAULT_255_2_778
10
29.145507
20
13.6425777
11
29.145507
21
21.0839838
0
LINE
8
DEFAULT_255_2_778
10
32.86621
20
21.0839838
11
32.86621
21
13.6425777
0
LINE
8
DEFAULT_255_2_778
10
46.5087878
20
21.0839838
11
46.5087878
21
13.6425777
0
LINE
8
DEFAULT_255_2_778
10
29.145507
20
-3.720703
11
50.2294908
21
-3.720703
0
LINE
8
DEFAULT_255_2_778
10
50.2294908
20
-3.720703
11
50.2294908
21
-11.1621091
0
LINE
8
DEFAULT_255_2_778
10
50.2294908
20
-11.1621091
11
29.145507
21
-11.1621091
0
LINE
8
DEFAULT_255_2_778
10
29.145507
20
-11.1621091
11
29.145507
21
-3.720703
0
LINE
8
DEFAULT_255_2_778
10
32.86621
20
-3.720703
11
32.86621
21
-11.1621091
0
LINE
8
DEFAULT_255_2_778
10
46.5087878
20
-3.720703
11
46.5087878
21
-11.1621091
0
LINE
8
DEFAULT_4_2_778
10
71.3134878
20
45.2685534
11
71.3134878
21
39.0673817
0
LINE
8
DEFAULT_4_2_778
10
71.313468
20
42.167961
11
74.4140538
21
42.167961
0
LINE
8
DEFAULT_4_2_778
10
71.313468
20
20.46386
11
71.313468
21
14.2626883
0
LINE
8
DEFAULT_4_2_778
10
71.313468
20
17.3632742
11
74.4140538
21
17.3632742
0
LINE
8
DEFAULT_4_2_778
10
71.313468
20
-4.3408268
11
71.313468
21
-10.5419985
0
LINE
8
DEFAULT_4_2_778
10
71.3134812
20
-7.441406
11
74.414067
21
-7.441406
0
LINE
8
DEFAULT_4_2_778
10
8.0615298
20
-4.3408202
11
8.0615298
21
-10.5419919
0
LINE
8
DEFAULT_4_2_778
10
4.960944
20
-7.4413994
11
8.0615298
21
-7.4413994
0
LINE
8
DEFAULT_4_2_778
10
8.0615298
20
20.4638732
11
8.0615298
21
14.2627015
0
LINE
8
DEFAULT_4_2_778
10
4.960944
20
17.3632874
11
8.0615298
21
17.3632874
0
LINE
8
DEFAULT_4_2_778
10
8.0615298
20
45.26856
11
8.0615298
21
39.0673883
0
LINE
8
DEFAULT_4_2_778
10
4.960944
20
42.1679676
11
8.0615298
21
42.1679676
0
ENDSEC
0
EOF