0
SECTION
2
HEADER
0
ENDSEC
0
SECTION
2
TABLES
0
TABLE
2
LTYPE
0
LTYPE
72
65
70
64
2
CONTINUOUS
3
______
73
0
40
0
0
LTYPE
72
65
70
64
2
DASH_DEFAULT_255_2_778_064_085
3
______
73
2
40
2
49
-0.19921568073322585
49
0.2645833259738156
0
ENDTAB
0
TABLE
2
LAYER
0
LAYER
2
DEFAULT_255_2_778
70
0
62
255
6
CONTINUOUS
0
LAYER
2
DEFAULT_255_2_778_064_085
70
0
62
255
6
DASH_DEFAULT_255_2_778_064_085
0
LAYER
2
DEFAULT_4_2_778
70
0
62
4
6
CONTINUOUS
0
ENDTAB
0
ENDSEC
0
SECTION
2
ENTITIES
0
LINE
8
DEFAULT_255_2_778
10
36.5869263
20
61.7016651
11
44.0283323
21
61.7016651
0
LINE
8
DEFAULT_255_2_778_064_085
10
40.3076293
20
61.7016651
11
40.3076293
21
4.6508854
0
LINE
8
DEFAULT_255_2_778
10
48.989846
20
46.8187692
11
45.8173976
21
48.4807317
0
LINE
8
DEFAULT_255_2_778
10
30.3858541
20
56.1201179
11
34.7983228
21
53.8315313
0
LINE
8
DEFAULT_255_2_778
10
35.7884236
20
56.0298883
11
46.9433384
21
50.8282714
0
LINE
8
DEFAULT_255_2_778
10
46.9433384
20
50.8282714
11
44.8273662
21
46.2905429
0
LINE
8
DEFAULT_255_2_778
10
44.8273662
20
46.2905429
11
33.6724494
21
51.4921622
0
LINE
8
DEFAULT_255_2_778
10
33.6724494
20
51.4921622
11
35.7884236
21
56.0298883
0
LINE
8
DEFAULT_255_2_778
10
38.0593858
20
55.0285871
11
35.9418189
21
50.4961069
0
LINE
8
DEFAULT_255_2_778
10
44.6735436
20
51.8238215
11
42.5559807
21
47.2913413
0
LINE
8
DEFAULT_255_2_778
10
8.0615232
20
46.818853
11
25.424804
21
46.818853
0
LINE
8
DEFAULT_255_2_778
10
71.3134746
20
46.818853
11
53.9501938
21
46.818853
0
LINE
8
DEFAULT_255_2_778
10
8.0615232
20
22.0141662
11
25.424804
21
22.0141662
0
LINE
8
DEFAULT_255_2_778
10
71.3134746
20
22.0141662
11
53.9501938
21
22.0141662
0
LINE
8
DEFAULT_255_2_778
10
8.0615232
20
-2.7905207
11
25.424804
21
-2.7905207
0
ARC
8
0
10
27.9128347
20
22.0177719
40
2.4880201
50
159.6502992
51
180.0830355
0
ARC
8
0
10
27.8996715
20
22.0193701
40
2.4751246
50
100.6655505
51
159.5790236
0
ARC
8
0
10
27.9039278
20
21.9818194
40
2.5128158
50
89.9690336
51
100.6024604
0
ARC
8
0
10
27.9088924
20
22.0066193
40
2.4880182
50
69.65028
51
90.0830526
0
ARC
8
0
10
27.9104899
20
22.0197807
40
2.4751246
50
10.6655354
51
69.5790041
0
ARC
8
0
10
27.8729433
20
22.0155241
40
2.5128117
50
359.9690373
51
10.6024688
0
ARC
8
0
10
27.8977371
20
22.0105604
40
2.4880201
50
339.6502992
51
0.0830355
0
ARC
8
0
10
27.9109003
20
22.0089622
40
2.4751246
50
280.6655505
51
339.5790236
0
ARC
8
0
10
27.906644
20
22.0465129
40
2.5128158
50
269.9690336
51
280.6024604
0
ARC
8
0
10
27.9016794
20
22.021713
40
2.4880182
50
249.65028
51
270.0830526
0
ARC
8
0
10
27.9000819
20
22.0085516
40
2.4751246
50
190.6655354
51
249.5790041
0
ARC
8
0
10
27.9376285
20
22.0128082
40
2.5128117
50
179.9690373
51
190.6024688
0
LINE
8
DEFAULT_255_2_778
10
25.4248172
20
22.0141662
11
25.4248172
21
22.0141662
0
ARC
8
0
10
51.4772753
20
22.0177719
40
2.4880083
50
159.6501978
51
180.0830351
0
ARC
8
0
10
51.4641298
20
22.0193637
40
2.4751317
50
100.6656187
51
159.5789257
0
ARC
8
0
10
51.4683806
20
21.9818326
40
2.5128025
50
89.9690414
51
100.6024869
0
ARC
8
0
10
51.4733442
20
22.0066301
40
2.4880074
50
69.650233
51
90.0830386
0
ARC
8
0
10
51.4749368
20
22.0197751
40
2.4751309
50
10.6656383
51
69.5789809
0
ARC
8
0
10
51.4374187
20
22.0155252
40
2.5127887
50
359.9690127
51
10.6025423
0
ARC
8
0
10
51.4622014
20
22.0105604
40
2.4880083
50
339.6501978
51
0.0830351
0
ARC
8
0
10
51.4753469
20
22.0089686
40
2.4751317
50
280.6656187
51
339.5789257
0
ARC
8
0
10
51.4710961
20
22.0464997
40
2.5128025
50
269.9690414
51
280.6024869
0
ARC
8
0
10
51.4661325
20
22.0217022
40
2.4880074
50
249.650233
51
270.0830386
0
ARC
8
0
10
51.4645399
20
22.0085572
40
2.4751309
50
190.6656383
51
249.5789809
0
ARC
8
0
10
51.502058
20
22.0128072
40
2.5127887
50
179.9690127
51
190.6025423
0
LINE
8
DEFAULT_255_2_778
10
48.9892697
20
22.0141662
11
48.9892697
21
22.0141662
0
ARC
8
0
10
27.9128347
20
-2.7869149
40
2.4880201
50
159.6502992
51
180.0830355
0
ARC
8
0
10
27.8996715
20
-2.7853167
40
2.4751246
50
100.6655505
51
159.5790236
0
ARC
8
0
10
27.9039278
20
-2.8228674
40
2.5128158
50
89.9690336
51
100.6024604
0
ARC
8
0
10
27.9088924
20
-2.7980675
40
2.4880182
50
69.65028
51
90.0830526
0
ARC
8
0
10
27.9104899
20
-2.7849061
40
2.4751246
50
10.6655354
51
69.5790041
0
ARC
8
0
10
27.8729433
20
-2.7891627
40
2.5128117
50
359.9690373
51
10.6024688
0
ARC
8
0
10
27.8977371
20
-2.7941264
40
2.4880201
50
339.6502992
51
0.0830355
0
ARC
8
0
10
27.9109003
20
-2.7957246
40
2.4751246
50
280.6655505
51
339.5790236
0
ARC
8
0
10
27.906644
20
-2.7581739
40
2.5128158
50
269.9690336
51
280.6024604
0
ARC
8
0
10
27.9016794
20
-2.7829738
40
2.4880182
50
249.65028
51
270.0830526
0
ARC
8
0
10
27.9000819
20
-2.7961352
40
2.4751246
50
190.6655354
51
249.5790041
0
ARC
8
0
10
27.9376285
20
-2.7918786
40
2.5128117
50
179.9690373
51
190.6024688
0
LINE
8
DEFAULT_255_2_778
10
25.4248172
20
-2.7905207
11
25.4248172
21
-2.7905207
0
ARC
8
0
10
27.9128319
20
46.8224585
40
2.4880173
50
159.6502896
51
180.0830307
0
ARC
8
0
10
27.8996733
20
46.8240552
40
2.4751266
50
100.665584
51
159.5790182
0
ARC
8
0
10
27.9039267
20
46.7865294
40
2.5127928
50
89.9690089
51
100.6025338
0
ARC
8
0
10
27.9088929
20
46.8113121
40
2.4880122
50
69.650242
51
90.0830651
0
ARC
8
0
10
27.9104878
20
46.8244656
40
2.4751268
50
10.6655563
51
69.5789721
0
ARC
8
0
10
27.8729484
20
46.8202109
40
2.5128066
50
359.9690376
51
10.6024783
0
ARC
8
0
10
27.8977399
20
46.8152474
40
2.4880173
50
339.6502896
51
0.0830307
0
ARC
8
0
10
27.9108985
20
46.8136507
40
2.4751266
50
280.665584
51
339.5790182
0
ARC
8
0
10
27.9066451
20
46.8511766
40
2.5127928
50
269.9690089
51
280.6025338
0
ARC
8
0
10
27.9016789
20
46.8263939
40
2.4880122
50
249.650242
51
270.0830651
0
ARC
8
0
10
27.900084
20
46.8132403
40
2.4751268
50
190.6655563
51
249.5789721
0
ARC
8
0
10
27.9376234
20
46.8174951
40
2.5128066
50
179.9690376
51
190.6024783
0
LINE
8
DEFAULT_255_2_778
10
25.4248172
20
46.818853
11
25.4248172
21
46.818853
0
ARC
8
0
10
51.4772725
20
46.8224585
40
2.4880054
50
159.6501883
51
180.0830304
0
ARC
8
0
10
51.4641316
20
46.8240488
40
2.4751337
50
100.6656521
51
159.5789204
0
ARC
8
0
10
51.4683795
20
46.7865426
40
2.5127795
50
89.9690166
51
100.6025603
0
ARC
8
0
10
51.4733448
20
46.8113228
40
2.4880014
50
69.650195
51
90.0830511
0
ARC
8
0
10
51.4749347
20
46.8244601
40
2.4751331
50
10.6656592
51
69.578949
0
ARC
8
0
10
51.4374239
20
46.8202119
40
2.5127836
50
359.969013
51
10.6025519
0
ARC
8
0
10
51.4622042
20
46.8152475
40
2.4880054
50
339.6501883
51
0.0830304
0
ARC
8
0
10
51.4753451
20
46.8136572
40
2.4751337
50
280.6656521
51
339.5789204
0
ARC
8
0
10
51.4710972
20
46.8511633
40
2.5127795
50
269.9690166
51
280.6025603
0
ARC
8
0
10
51.466132
20
46.8263831
40
2.4880014
50
249.650195
51
270.0830511
0
ARC
8
0
10
51.464542
20
46.8132458
40
2.4751331
50
190.6656592
51
249.578949
0
ARC
8
0
10
51.5020529
20
46.817494
40
2.5127836
50
179.969013
51
190.6025519
0
LINE
8
DEFAULT_255_2_778
10
48.9892697
20
46.818853
11
48.9892697
21
46.818853
0
LINE
8
DEFAULT_255_2_778
10
71.3134878
20
-2.7905207
11
53.950207
21
-2.7905207
0
ARC
8
0
10
51.4772753
20
-2.7869149
40
2.4880083
50
159.6501978
51
180.0830351
0
ARC
8
0
10
51.4641298
20
-2.7853231
40
2.4751317
50
100.6656187
51
159.5789257
0
ARC
8
0
10
51.4683806
20
-2.8228542
40
2.5128025
50
89.9690414
51
100.6024869
0
ARC
8
0
10
51.4733442
20
-2.7980567
40
2.4880074
50
69.650233
51
90.0830386
0
ARC
8
0
10
51.4749368
20
-2.7849117
40
2.4751309
50
10.6656383
51
69.5789809
0
ARC
8
0
10
51.4374187
20
-2.7891617
40
2.5127887
50
359.9690127
51
10.6025423
0
ARC
8
0
10
51.4622014
20
-2.7941264
40
2.4880083
50
339.6501978
51
0.0830351
0
ARC
8
0
10
51.4753469
20
-2.7957182
40
2.4751317
50
280.6656187
51
339.5789257
0
ARC
8
0
10
51.4710961
20
-2.7581871
40
2.5128025
50
269.9690414
51
280.6024869
0
ARC
8
0
10
51.4661325
20
-2.7829846
40
2.4880074
50
249.650233
51
270.0830386
0
ARC
8
0
10
51.4645399
20
-2.7961296
40
2.4751309
50
190.6656383
51
249.5789809
0
ARC
8
0
10
51.502058
20
-2.7918796
40
2.5127887
50
179.9690127
51
190.6025423
0
LINE
8
DEFAULT_255_2_778
10
48.9892697
20
-2.7905207
11
48.9892697
21
-2.7905207
0
LINE
8
DEFAULT_4_2_778
10
71.3134878
20
49.9194388
11
71.3134878
21
43.7182671
0
LINE
8
DEFAULT_4_2_778
10
71.313468
20
46.8188464
11
74.4140538
21
46.8188464
0
LINE
8
DEFAULT_4_2_778
10
71.313468
20
25.1147454
11
71.313468
21
18.9135737
0
LINE
8
DEFAULT_4_2_778
10
71.3134812
20
22.0141595
11
74.414067
21
22.0141595
0
LINE
8
DEFAULT_4_2_778
10
8.0615298
20
0.3100586
11
8.0615298
21
-5.8911131
0
LINE
8
DEFAULT_4_2_778
10
4.960944
20
-2.7905405
11
8.0615298
21
-2.7905405
0
LINE
8
DEFAULT_4_2_778
10
8.0615298
20
25.1147322
11
8.0615298
21
18.9135605
0
LINE
8
DEFAULT_4_2_778
10
4.960944
20
22.0141463
11
8.0615298
21
22.0141463
0
LINE
8
DEFAULT_4_2_778
10
8.0615298
20
49.919419
11
8.0615298
21
43.7182473
0
LINE
8
DEFAULT_4_2_778
10
4.9609307
20
46.8188464
11
8.0615166
21
46.8188464
0
LINE
8
DEFAULT_4_2_778
10
71.313468
20
0.3100586
11
71.313468
21
-5.8911131
0
LINE
8
DEFAULT_4_2_778
10
71.313468
20
-2.7905207
11
74.4140538
21
-2.7905207
0
LINE
8
DEFAULT_255_2_778
10
48.989846
20
22.0140824
11
45.8173976
21
23.6760449
0
LINE
8
DEFAULT_255_2_778
10
30.3858541
20
31.3154306
11
34.7983228
21
29.026845
0
LINE
8
DEFAULT_255_2_778
10
35.7884236
20
31.2252017
11
46.9433384
21
26.0235834
0
LINE
8
DEFAULT_255_2_778
10
46.9433384
20
26.0235834
11
44.8273662
21
21.4858558
0
LINE
8
DEFAULT_255_2_778
10
44.8273662
20
21.4858558
11
33.6724494
21
26.6874721
0
LINE
8
DEFAULT_255_2_778
10
33.6724494
20
26.6874721
11
35.7884236
21
31.2252017
0
LINE
8
DEFAULT_255_2_778
10
38.0593858
20
30.2238998
11
35.9418189
21
25.6914206
0
LINE
8
DEFAULT_255_2_778
10
44.6735436
20
27.0191342
11
42.5559807
21
22.486655
0
LINE
8
DEFAULT_255_2_778
10
48.989846
20
-2.7906044
11
45.8173976
21
-1.1286419
0
LINE
8
DEFAULT_255_2_778
10
30.3858541
20
6.5107448
11
34.7983228
21
4.2221572
0
LINE
8
DEFAULT_255_2_778
10
35.7884236
20
6.4205139
11
46.9433384
21
1.2188976
0
LINE
8
DEFAULT_255_2_778
10
46.9433384
20
1.2188976
11
44.8273662
21
-3.31883
0
LINE
8
DEFAULT_255_2_778
10
44.8273662
20
-3.31883
11
33.6724494
21
1.8827944
0
LINE
8
DEFAULT_255_2_778
10
33.6724494
20
1.8827944
11
35.7884236
21
6.4205139
0
LINE
8
DEFAULT_255_2_778
10
38.0593858
20
5.4192129
11
35.9418189
21
0.8867338
0
LINE
8
DEFAULT_255_2_778
10
44.6735436
20
2.2144474
11
42.5559807
21
-2.3180318
0
ENDSEC
0
EOF