0
SECTION
2
HEADER
0
ENDSEC
0
SECTION
2
TABLES
0
TABLE
2
LTYPE
0
LTYPE
72
65
70
64
2
CONTINUOUS
3
______
73
0
40
0
0
ENDTAB
0
TABLE
2
LAYER
0
LAYER
2
DEFAULT_255_2_778
70
0
62
255
6
CONTINUOUS
0
LAYER
2
DEFAULT_4_2_778
70
0
62
4
6
CONTINUOUS
0
ENDTAB
0
ENDSEC
0
SECTION
2
ENTITIES
0
ARC
8
0
10
21.6490736
20
44.6517887
40
3.717758
50
48.4620518
51
89.1517172
0
ARC
8
0
10
21.6347633
20
44.5458058
40
3.8070435
50
15.3545819
51
49.3585754
0
ARC
8
0
10
21.9178125
20
44.6484344
40
3.5070046
50
0.0000302
51
14.9622125
0
ARC
8
0
10
21.9092387
20
44.6492241
40
3.5155786
50
341.6018531
51
359.9871608
0
ARC
8
0
10
21.5809827
20
44.7871416
40
3.8706814
50
304.0575979
51
341.1982682
0
ARC
8
0
10
21.6649356
20
44.5792871
40
3.6517639
50
270.6147189
51
304.7927055
0
ARC
8
0
10
21.7591543
20
44.6450814
40
3.7177557
50
228.4620296
51
269.1517239
0
ARC
8
0
10
21.7734658
20
44.7510677
40
3.8070444
50
195.3545887
51
229.3585739
0
ARC
8
0
10
21.4904123
20
44.648438
40
3.5070011
50
180.000028
51
194.9622202
0
LINE
8
DEFAULT_255_2_778
10
17.9834112
20
44.6484363
11
8.0615364
21
44.6484363
0
ARC
8
0
10
29.2087635
20
44.7187402
40
3.7915347
50
213.3293745
51
269.0440552
0
ARC
8
0
10
29.0809653
20
44.6711194
40
3.6587173
50
189.2127745
51
213.8059232
0
ARC
8
0
10
28.9909383
20
44.6478365
40
3.5661343
50
179.9903635
51
189.0750969
0
ARC
8
0
10
28.9924234
20
44.6489225
40
3.5676194
50
162.2707897
51
180.0078084
0
ARC
8
0
10
29.2316428
20
44.5496892
40
3.8257571
50
125.1177274
51
161.9461988
0
ARC
8
0
10
29.1741555
20
44.6962888
40
3.6729622
50
90.4469024
51
125.6997436
0
ARC
8
0
10
29.082251
20
44.5781327
40
3.7915343
50
33.3293789
51
89.0440625
0
ARC
8
0
10
29.2100493
20
44.6257539
40
3.6587167
50
9.2127682
51
33.8059246
0
ARC
8
0
10
29.3000755
20
44.6490362
40
3.5661345
50
359.990361
51
9.0750976
0
LINE
8
DEFAULT_255_2_778
10
32.86621
20
44.6484363
11
46.5087878
21
44.6484363
0
LINE
8
DEFAULT_255_2_778
10
46.5087878
20
44.6484363
11
48.9892564
21
49.6093736
0
LINE
8
DEFAULT_255_2_778
10
48.9892564
20
49.6093736
11
53.9501938
21
39.6874989
0
LINE
8
DEFAULT_255_2_778
10
53.9501938
20
39.6874989
11
56.4306625
21
44.6484363
0
LINE
8
DEFAULT_255_2_778
10
56.4306625
20
44.6484363
11
71.3134746
21
44.6484363
0
LINE
8
DEFAULT_4_2_778
10
71.3134878
20
47.7490221
11
71.3134878
21
41.5478504
0
LINE
8
DEFAULT_4_2_778
10
71.3134812
20
44.6484363
11
74.414067
21
44.6484363
0
LINE
8
DEFAULT_4_2_778
10
8.0615298
20
47.7490221
11
8.0615298
21
41.5478504
0
LINE
8
DEFAULT_4_2_778
10
4.960944
20
44.6484363
11
8.0615298
21
44.6484363
0
ARC
8
0
10
21.6490742
20
19.8471022
40
3.7177577
50
48.4620591
51
89.1517265
0
ARC
8
0
10
21.6347653
20
19.7411205
40
3.8070412
50
15.3545717
51
49.3585866
0
ARC
8
0
10
21.917812
20
19.8437478
40
3.5070051
50
0.0000275
51
14.9622131
0
ARC
8
0
10
21.9092339
20
19.8445372
40
3.5155834
50
341.6018669
51
359.9871615
0
ARC
8
0
10
21.5809842
20
19.9824532
40
3.8706797
50
304.0575889
51
341.1982729
0
ARC
8
0
10
21.6649351
20
19.7746038
40
3.6517676
50
270.6147274
51
304.7926766
0
ARC
8
0
10
21.7591542
20
19.8403967
40
3.7177577
50
228.4620591
51
269.1517265
0
ARC
8
0
10
21.7734631
20
19.9463784
40
3.8070412
50
195.3545717
51
229.3585866
0
ARC
8
0
10
21.4904163
20
19.8437511
40
3.5070051
50
180.0000275
51
194.9622131
0
LINE
8
DEFAULT_255_2_778
10
17.9834112
20
19.8437494
11
8.0615364
21
19.8437494
0
ARC
8
0
10
29.2087621
20
19.9140526
40
3.7915338
50
213.3293866
51
269.0440758
0
ARC
8
0
10
29.0809641
20
19.8664311
40
3.658716
50
189.2127618
51
213.8059259
0
ARC
8
0
10
28.9909438
20
19.8431497
40
3.5661398
50
179.9903633
51
189.0750903
0
ARC
8
0
10
28.9924259
20
19.8442357
40
3.5676219
50
162.2707965
51
180.0078087
0
ARC
8
0
10
29.2316415
20
19.7450035
40
3.8257556
50
125.1177181
51
161.9462029
0
ARC
8
0
10
29.1741548
20
19.8916023
40
3.6729618
50
90.4468919
51
125.6997347
0
ARC
8
0
10
29.0822519
20
19.7734463
40
3.7915338
50
33.3293866
51
89.0440758
0
ARC
8
0
10
29.2100499
20
19.8210678
40
3.658716
50
9.2127618
51
33.8059259
0
ARC
8
0
10
29.3000702
20
19.8443492
40
3.5661398
50
359.9903633
51
9.0750903
0
LINE
8
DEFAULT_255_2_778
10
32.86621
20
19.8437494
11
46.5087878
21
19.8437494
0
LINE
8
DEFAULT_255_2_778
10
46.5087878
20
19.8437494
11
48.9892564
21
24.8046868
0
LINE
8
DEFAULT_255_2_778
10
48.9892564
20
24.8046868
11
53.9501938
21
14.8828121
0
LINE
8
DEFAULT_255_2_778
10
53.9501938
20
14.8828121
11
56.4306625
21
19.8437494
0
LINE
8
DEFAULT_255_2_778
10
56.4306625
20
19.8437494
11
71.3134746
21
19.8437494
0
ARC
8
0
10
21.6490742
20
-4.9575846
40
3.7177577
50
48.4620591
51
89.1517265
0
ARC
8
0
10
21.6347653
20
-5.0635663
40
3.8070412
50
15.3545717
51
49.3585866
0
ARC
8
0
10
21.917812
20
-4.960939
40
3.5070051
50
0.0000275
51
14.9622131
0
ARC
8
0
10
21.9092339
20
-4.9601496
40
3.5155834
50
341.6018669
51
359.9871615
0
ARC
8
0
10
21.5809842
20
-4.8222336
40
3.8706797
50
304.0575889
51
341.1982729
0
ARC
8
0
10
21.6649351
20
-5.030083
40
3.6517676
50
270.6147274
51
304.7926766
0
ARC
8
0
10
21.7591542
20
-4.9642901
40
3.7177577
50
228.4620591
51
269.1517265
0
ARC
8
0
10
21.7734631
20
-4.8583085
40
3.8070412
50
195.3545717
51
229.3585866
0
ARC
8
0
10
21.4904163
20
-4.9609357
40
3.5070051
50
180.0000275
51
194.9622131
0
LINE
8
DEFAULT_255_2_778
10
17.9834112
20
-4.9609374
11
8.0615364
21
-4.9609374
0
ARC
8
0
10
29.2087621
20
-4.8906342
40
3.7915338
50
213.3293866
51
269.0440758
0
ARC
8
0
10
29.0809641
20
-4.9382557
40
3.658716
50
189.2127618
51
213.8059259
0
ARC
8
0
10
28.9909438
20
-4.9615372
40
3.5661398
50
179.9903633
51
189.0750903
0
ARC
8
0
10
28.9924259
20
-4.9604511
40
3.5676219
50
162.2707965
51
180.0078087
0
ARC
8
0
10
29.2316415
20
-5.0596833
40
3.8257556
50
125.1177181
51
161.9462029
0
ARC
8
0
10
29.1741548
20
-4.9130845
40
3.6729618
50
90.4468919
51
125.6997347
0
ARC
8
0
10
29.0822519
20
-5.0312405
40
3.7915338
50
33.3293866
51
89.0440758
0
ARC
8
0
10
29.2100499
20
-4.983619
40
3.658716
50
9.2127618
51
33.8059259
0
ARC
8
0
10
29.3000702
20
-4.9603376
40
3.5661398
50
359.9903633
51
9.0750903
0
LINE
8
DEFAULT_255_2_778
10
32.86621
20
-4.9609374
11
46.5087878
21
-4.9609374
0
LINE
8
DEFAULT_255_2_778
10
46.5087878
20
-4.9609374
11
48.9892564
21
0
0
LINE
8
DEFAULT_255_2_778
10
48.9892564
20
0
11
53.9501938
21
-9.9218747
0
LINE
8
DEFAULT_255_2_778
10
53.9501938
20
-9.9218747
11
56.4306625
21
-4.9609374
0
LINE
8
DEFAULT_255_2_778
10
56.4306625
20
-4.9609374
11
71.3134746
21
-4.9609374
0
LINE
8
DEFAULT_4_2_778
10
71.3134878
20
22.9443353
11
71.3134878
21
16.7431636
0
LINE
8
DEFAULT_4_2_778
10
71.313468
20
19.8437428
11
74.4140538
21
19.8437428
0
LINE
8
DEFAULT_4_2_778
10
71.313468
20
-1.8603581
11
71.313468
21
-8.0615298
0
LINE
8
DEFAULT_4_2_778
10
71.3134812
20
-4.9609374
11
74.414067
21
-4.9609374
0
LINE
8
DEFAULT_4_2_778
10
8.0615298
20
-1.8603515
11
8.0615298
21
-8.0615232
0
LINE
8
DEFAULT_4_2_778
10
4.960944
20
-4.9609307
11
8.0615298
21
-4.9609307
0
LINE
8
DEFAULT_4_2_778
10
8.0615298
20
22.9443419
11
8.0615298
21
16.7431702
0
LINE
8
DEFAULT_4_2_778
10
4.960944
20
19.8437494
11
8.0615298
21
19.8437494
0
ENDSEC
0
EOF