0
SECTION
2
HEADER
0
ENDSEC
0
SECTION
2
TABLES
0
TABLE
2
LTYPE
0
LTYPE
72
65
70
64
2
CONTINUOUS
3
______
73
0
40
0
0
ENDTAB
0
TABLE
2
LAYER
0
LAYER
2
DEFAULT_255_2_778
70
0
62
255
6
CONTINUOUS
0
LAYER
2
DEFAULT_4_2_778
70
0
62
4
6
CONTINUOUS
0
ENDTAB
0
ENDSEC
0
SECTION
2
ENTITIES
0
ARC
8
0
10
49.5273548
20
20.1826713
40
2.5625526
50
0.4083492
51
45.6961179
0
ARC
8
0
10
49.1497607
20
19.8419642
40
3.0702832
50
45.0942401
51
64.8864397
0
ARC
8
0
10
49.02434
20
19.5867626
40
3.3545947
50
64.7967127
51
80.6311656
0
ARC
8
0
10
48.9913621
20
19.4074824
40
3.5368535
50
80.5768465
51
90.0341113
0
ARC
8
0
10
48.9845661
20
19.4416189
40
3.5027195
50
89.9232771
51
104.2871162
0
ARC
8
0
10
48.9261844
20
19.6627014
40
3.274068
50
104.2518191
51
121.2762308
0
ARC
8
0
10
48.7451273
20
19.948118
40
2.9361387
50
121.1480892
51
143.1459468
0
ARC
8
0
10
48.405734
20
20.1939888
40
2.5171088
50
142.9906274
51
179.5443239
0
ARC
8
0
10
48.400513
20
20.2008997
40
2.5118425
50
179.7010108
51
179.9992057
0
ARC
8
0
10
43.3261831
20
20.1826713
40
2.5625526
50
0.4083492
51
45.6961179
0
ARC
8
0
10
42.948589
20
19.8419642
40
3.0702832
50
45.0942401
51
64.8864397
0
ARC
8
0
10
42.8231683
20
19.5867626
40
3.3545947
50
64.7967127
51
80.6311656
0
ARC
8
0
10
42.7901904
20
19.4074824
40
3.5368535
50
80.5768465
51
90.0341113
0
ARC
8
0
10
42.7833944
20
19.4416189
40
3.5027195
50
89.9232771
51
104.2871162
0
ARC
8
0
10
42.7250127
20
19.6627014
40
3.274068
50
104.2518191
51
121.2762308
0
ARC
8
0
10
42.5439556
20
19.948118
40
2.9361387
50
121.1480892
51
143.1459468
0
ARC
8
0
10
42.2045623
20
20.1939888
40
2.5171088
50
142.9906274
51
179.5443239
0
ARC
8
0
10
42.1993413
20
20.2008997
40
2.5118425
50
179.7010108
51
179.9992057
0
ARC
8
0
10
37.1250088
20
20.1826745
40
2.5625552
50
0.4082755
51
45.6959581
0
ARC
8
0
10
36.7474328
20
19.841983
40
3.070262
50
45.0941427
51
64.8864617
0
ARC
8
0
10
36.6220024
20
19.5867601
40
3.3545967
50
64.7967378
51
80.6312152
0
ARC
8
0
10
36.5890191
20
19.4074477
40
3.5368882
50
80.5768923
51
90.0341173
0
ARC
8
0
10
36.5822221
20
19.4416
40
3.5027384
50
89.9232679
51
104.2870765
0
ARC
8
0
10
36.5238345
20
19.6627072
40
3.2740615
50
104.2517832
51
121.2762393
0
ARC
8
0
10
36.3427741
20
19.9481299
40
2.9361252
50
121.1481041
51
143.1460418
0
ARC
8
0
10
36.0033958
20
20.1939897
40
2.5171141
50
142.9907433
51
179.5443456
0
ARC
8
0
10
35.9981696
20
20.2008997
40
2.5118425
50
179.7010108
51
179.9992057
0
ARC
8
0
10
30.9238384
20
20.1826729
40
2.5625539
50
0.4083124
51
45.696038
0
ARC
8
0
10
30.5462534
20
19.8419742
40
3.0702722
50
45.0941836
51
64.8864463
0
ARC
8
0
10
30.420827
20
19.5867584
40
3.3545988
50
64.7967334
51
80.6311838
0
ARC
8
0
10
30.3878474
20
19.4074674
40
3.5368684
50
80.5768654
51
90.0341168
0
ARC
8
0
10
30.3810506
20
19.4416054
40
3.5027331
50
89.9232708
51
104.2870895
0
ARC
8
0
10
30.3226648
20
19.6627051
40
3.2740638
50
104.2517949
51
121.2762363
0
ARC
8
0
10
30.1416036
20
19.9481283
40
2.9361268
50
121.148094
51
143.1460251
0
ARC
8
0
10
29.8022228
20
20.1939894
40
2.5171128
50
142.9907115
51
179.5443367
0
ARC
8
0
10
29.7969979
20
20.2008997
40
2.5118425
50
179.7010108
51
179.9992057
0
ARC
8
0
10
49.5273548
20
29.4267024
40
2.5625526
50
314.3038821
51
359.5916508
0
ARC
8
0
10
49.1497607
20
29.7674094
40
3.0702832
50
295.1135603
51
314.9057599
0
ARC
8
0
10
49.02434
20
30.022611
40
3.3545947
50
279.3688344
51
295.2032873
0
ARC
8
0
10
48.9913621
20
30.2018912
40
3.5368535
50
269.9658887
51
279.4231535
0
ARC
8
0
10
48.9845661
20
30.1677547
40
3.5027195
50
255.7128838
51
270.0767229
0
ARC
8
0
10
48.9261844
20
29.9466722
40
3.274068
50
238.7237692
51
255.7481809
0
ARC
8
0
10
48.7451273
20
29.6612556
40
2.9361387
50
216.8540532
51
238.8519108
0
ARC
8
0
10
48.405734
20
29.4153848
40
2.5171088
50
180.4556761
51
217.0093726
0
ARC
8
0
10
48.400513
20
29.4084739
40
2.5118425
50
180.0007943
51
180.2989892
0
ARC
8
0
10
43.3261831
20
29.4267024
40
2.5625526
50
314.3038821
51
359.5916508
0
ARC
8
0
10
42.948589
20
29.7674094
40
3.0702832
50
295.1135603
51
314.9057599
0
ARC
8
0
10
42.8231683
20
30.022611
40
3.3545947
50
279.3688344
51
295.2032873
0
ARC
8
0
10
42.7901904
20
30.2018912
40
3.5368535
50
269.9658887
51
279.4231535
0
ARC
8
0
10
42.7833944
20
30.1677547
40
3.5027195
50
255.7128838
51
270.0767229
0
ARC
8
0
10
42.7250127
20
29.9466722
40
3.274068
50
238.7237692
51
255.7481809
0
ARC
8
0
10
42.5439556
20
29.6612556
40
2.9361387
50
216.8540532
51
238.8519108
0
ARC
8
0
10
42.2045623
20
29.4153848
40
2.5171088
50
180.4556761
51
217.0093726
0
ARC
8
0
10
42.1993413
20
29.4084739
40
2.5118425
50
180.0007943
51
180.2989892
0
ARC
8
0
10
37.1250088
20
29.4266991
40
2.5625552
50
314.3040419
51
359.5917245
0
ARC
8
0
10
36.7474328
20
29.7673907
40
3.070262
50
295.1135383
51
314.9058573
0
ARC
8
0
10
36.6220024
20
30.0226135
40
3.3545967
50
279.3687848
51
295.2032622
0
ARC
8
0
10
36.5890191
20
30.201926
40
3.5368882
50
269.9658827
51
279.4231077
0
ARC
8
0
10
36.5822221
20
30.1677736
40
3.5027384
50
255.7129235
51
270.0767321
0
ARC
8
0
10
36.5238345
20
29.9466664
40
3.2740615
50
238.7237607
51
255.7482168
0
ARC
8
0
10
36.3427741
20
29.6612437
40
2.9361252
50
216.8539582
51
238.8518959
0
ARC
8
0
10
36.0033958
20
29.4153839
40
2.5171141
50
180.4556544
51
217.0092567
0
ARC
8
0
10
35.9981696
20
29.4084739
40
2.5118425
50
180.0007943
51
180.2989892
0
ARC
8
0
10
30.9238384
20
29.4267007
40
2.5625539
50
314.303962
51
359.5916876
0
ARC
8
0
10
30.5462534
20
29.7673994
40
3.0702722
50
295.1135537
51
314.9058164
0
ARC
8
0
10
30.420827
20
30.0226153
40
3.3545988
50
279.3688162
51
295.2032666
0
ARC
8
0
10
30.3878474
20
30.2019062
40
3.5368684
50
269.9658832
51
279.4231346
0
ARC
8
0
10
30.3810506
20
30.1677682
40
3.5027331
50
255.7129105
51
270.0767292
0
ARC
8
0
10
30.3226648
20
29.9466685
40
3.2740638
50
238.7237637
51
255.7482051
0
ARC
8
0
10
30.1416036
20
29.6612453
40
2.9361268
50
216.8539749
51
238.851906
0
ARC
8
0
10
29.8022228
20
29.4153843
40
2.5171128
50
180.4556633
51
217.0092885
0
ARC
8
0
10
29.7969979
20
29.4084739
40
2.5118425
50
180.0007943
51
180.2989892
0
LINE
8
DEFAULT_255_2_778
10
52.0898423
20
-4.3408202
11
52.0898423
21
20.2009345
0
LINE
8
DEFAULT_255_2_778
10
27.2851555
20
20.2009345
11
27.2851555
21
-4.3408202
0
LINE
8
DEFAULT_255_2_778
10
52.0898423
20
53.9501938
11
52.0898423
21
29.4084391
0
LINE
8
DEFAULT_255_2_778
10
27.2851555
20
29.4084391
11
27.2851555
21
53.9501938
0
LINE
8
DEFAULT_4_2_778
10
24.1845696
20
-4.3408334
11
30.3857413
21
-4.3408334
0
LINE
8
DEFAULT_4_2_778
10
27.2851621
20
-4.3408136
11
27.2851621
21
-7.4413994
0
LINE
8
DEFAULT_4_2_778
10
48.9892631
20
-4.3408136
11
55.1904348
21
-4.3408136
0
LINE
8
DEFAULT_4_2_778
10
52.0898357
20
-4.3408268
11
52.0898357
21
-7.4414127
0
LINE
8
DEFAULT_4_2_778
10
24.184563
20
53.9501872
11
30.3857347
21
53.9501872
0
LINE
8
DEFAULT_4_2_778
10
27.2851621
20
57.050773
11
27.2851621
21
53.9501872
0
LINE
8
DEFAULT_4_2_778
10
48.9892631
20
53.9501872
11
55.1904348
21
53.9501872
0
LINE
8
DEFAULT_4_2_778
10
52.0898423
20
57.050773
11
52.0898423
21
53.9501872
0
ENDSEC
0
EOF