0
SECTION
2
HEADER
0
ENDSEC
0
SECTION
2
TABLES
0
TABLE
2
LTYPE
0
LTYPE
72
65
70
64
2
CONTINUOUS
3
______
73
0
40
0
0
ENDTAB
0
TABLE
2
LAYER
0
LAYER
2
DEFAULT_255_2_778
70
0
62
255
6
CONTINUOUS
0
LAYER
2
DEFAULT_4_2_778
70
0
62
4
6
CONTINUOUS
0
ENDTAB
0
ENDSEC
0
SECTION
2
ENTITIES
0
LINE
8
DEFAULT_255_2_778
10
39.6874989
20
-4.3408202
11
39.6874989
21
29.145507
0
ARC
8
0
10
48.9735088
20
29.7618428
40
3.1163358
50
342.2116247
51
0.06928
0
ARC
8
0
10
48.995362
20
29.7596101
40
3.0948487
50
286.232995
51
342.1273842
0
ARC
8
0
10
48.9925415
20
29.786048
40
3.1210246
50
269.9396923
51
286.1470338
0
ARC
8
0
10
48.9854873
20
29.7813583
40
3.1163355
50
252.2116117
51
270.0692983
0
ARC
8
0
10
48.9832563
20
29.759506
40
3.0948496
50
196.2329758
51
252.1273462
0
ARC
8
0
10
49.0096944
20
29.7623268
40
3.1210256
50
179.939709
51
196.1470178
0
ARC
8
0
10
42.7723371
20
29.7618428
40
3.1163358
50
342.2116247
51
0.06928
0
ARC
8
0
10
42.7941903
20
29.7596101
40
3.0948487
50
286.232995
51
342.1273842
0
ARC
8
0
10
42.7913698
20
29.786048
40
3.1210246
50
269.9396923
51
286.1470338
0
ARC
8
0
10
42.7843156
20
29.7813583
40
3.1163355
50
252.2116117
51
270.0692983
0
ARC
8
0
10
42.7820846
20
29.759506
40
3.0948496
50
196.2329758
51
252.1273462
0
ARC
8
0
10
42.8085227
20
29.7623268
40
3.1210256
50
179.939709
51
196.1470178
0
ARC
8
0
10
36.5711654
20
29.7618428
40
3.1163358
50
342.2116247
51
0.06928
0
ARC
8
0
10
36.5930186
20
29.7596101
40
3.0948487
50
286.232995
51
342.1273842
0
ARC
8
0
10
36.5901981
20
29.786048
40
3.1210246
50
269.9396923
51
286.1470338
0
ARC
8
0
10
36.5831443
20
29.7813508
40
3.116328
50
252.2115896
51
270.0692914
0
ARC
8
0
10
36.5809167
20
29.7595097
40
3.0948539
50
196.2330235
51
252.1273271
0
ARC
8
0
10
36.6073414
20
29.7623261
40
3.1210159
50
179.9396963
51
196.1470565
0
ARC
8
0
10
30.3700015
20
29.7618434
40
3.1163279
50
342.2115662
51
0.0692683
0
ARC
8
0
10
30.3918406
20
29.7596168
40
3.0948563
50
286.233035
51
342.1272995
0
ARC
8
0
10
30.3890259
20
29.7860367
40
3.1210133
50
269.9397024
51
286.1470628
0
ARC
8
0
10
30.3819726
20
29.7813458
40
3.116323
50
252.211574
51
270.0692906
0
ARC
8
0
10
30.3797471
20
29.7595119
40
3.0948563
50
196.2330519
51
252.1273159
0
ARC
8
0
10
30.4061698
20
29.7623261
40
3.1210159
50
179.9396964
51
196.1470567
0
LINE
8
DEFAULT_255_2_778
10
52.0898423
20
53.9501806
11
52.0898423
21
29.7656109
0
LINE
8
DEFAULT_255_2_778
10
27.2851555
20
29.7656109
11
27.2851555
21
53.9501806
0
LINE
8
DEFAULT_255_2_778
10
27.2851555
20
-4.3408202
11
27.2851555
21
29.145507
0
LINE
8
DEFAULT_4_2_778
10
24.1845696
20
53.9501806
11
30.3857413
21
53.9501806
0
LINE
8
DEFAULT_4_2_778
10
27.2851621
20
57.050773
11
27.2851621
21
53.9501872
0
LINE
8
DEFAULT_4_2_778
10
48.9892631
20
53.9501872
11
55.1904348
21
53.9501872
0
LINE
8
DEFAULT_4_2_778
10
52.0898357
20
57.0507863
11
52.0898357
21
53.9502004
0
LINE
8
DEFAULT_4_2_778
10
24.184563
20
-4.3408136
11
30.3857347
21
-4.3408136
0
LINE
8
DEFAULT_4_2_778
10
27.2851621
20
-4.3408136
11
27.2851621
21
-7.4413994
0
LINE
8
DEFAULT_4_2_778
10
36.5869197
20
-4.3408136
11
42.7880914
21
-4.3408136
0
LINE
8
DEFAULT_4_2_778
10
39.6874989
20
-4.3408136
11
39.6874989
21
-7.4413994
0
LINE
8
DEFAULT_255_2_778
10
46.5084981
20
39.6875755
11
32.8664997
21
13.6424747
0
LINE
8
DEFAULT_255_2_778
10
42.1679676
20
35.9668025
11
47.1289049
21
40.9277399
0
LINE
8
DEFAULT_255_2_778
10
47.1289049
20
40.9277399
11
45.8886706
21
34.106451
0
LINE
8
DEFAULT_255_2_778
10
45.8886706
20
34.106451
11
42.1679676
21
35.9668025
0
ENDSEC
0
EOF