0
SECTION
2
HEADER
0
ENDSEC
0
SECTION
2
TABLES
0
TABLE
2
LTYPE
0
LTYPE
72
65
70
64
2
CONTINUOUS
3
______
73
0
40
0
0
ENDTAB
0
TABLE
2
LAYER
0
LAYER
2
DEFAULT_255_2_778
70
0
62
255
6
CONTINUOUS
0
LAYER
2
DEFAULT_4_2_778
70
0
62
4
6
CONTINUOUS
0
ENDTAB
0
ENDSEC
0
SECTION
2
ENTITIES
0
ARC
8
0
10
61.9296982
20
29.4267024
40
2.5625526
50
314.3038821
51
359.5916508
0
ARC
8
0
10
61.5521041
20
29.7674094
40
3.0702832
50
295.1135603
51
314.9057599
0
ARC
8
0
10
61.4266834
20
30.022611
40
3.3545947
50
279.3688344
51
295.2032873
0
ARC
8
0
10
61.3937055
20
30.2018912
40
3.5368535
50
269.9658887
51
279.4231535
0
ARC
8
0
10
61.3869095
20
30.1677547
40
3.5027195
50
255.7128838
51
270.0767229
0
ARC
8
0
10
61.3285278
20
29.9466722
40
3.274068
50
238.7237692
51
255.7481809
0
ARC
8
0
10
61.1474707
20
29.6612556
40
2.9361387
50
216.8540532
51
238.8519108
0
ARC
8
0
10
60.8080774
20
29.4153848
40
2.5171088
50
180.4556761
51
217.0093726
0
ARC
8
0
10
60.8028564
20
29.4084739
40
2.5118425
50
180.0007943
51
180.2989892
0
ARC
8
0
10
55.7285265
20
29.4267024
40
2.5625526
50
314.3038821
51
359.5916508
0
ARC
8
0
10
55.3509324
20
29.7674094
40
3.0702832
50
295.1135603
51
314.9057599
0
ARC
8
0
10
55.2255117
20
30.022611
40
3.3545947
50
279.3688344
51
295.2032873
0
ARC
8
0
10
55.1925338
20
30.2018912
40
3.5368535
50
269.9658887
51
279.4231535
0
ARC
8
0
10
55.1857378
20
30.1677547
40
3.5027195
50
255.7128838
51
270.0767229
0
ARC
8
0
10
55.1273561
20
29.9466722
40
3.274068
50
238.7237692
51
255.7481809
0
ARC
8
0
10
54.946299
20
29.6612556
40
2.9361387
50
216.8540532
51
238.8519108
0
ARC
8
0
10
54.6069057
20
29.4153848
40
2.5171088
50
180.4556761
51
217.0093726
0
ARC
8
0
10
54.6016847
20
29.4084739
40
2.5118425
50
180.0007943
51
180.2989892
0
ARC
8
0
10
49.5273548
20
29.4267024
40
2.5625526
50
314.3038821
51
359.5916508
0
ARC
8
0
10
49.1497607
20
29.7674094
40
3.0702832
50
295.1135603
51
314.9057599
0
ARC
8
0
10
49.02434
20
30.022611
40
3.3545947
50
279.3688344
51
295.2032873
0
ARC
8
0
10
48.9913621
20
30.2018912
40
3.5368535
50
269.9658887
51
279.4231535
0
ARC
8
0
10
48.9845661
20
30.1677547
40
3.5027195
50
255.7128838
51
270.0767229
0
ARC
8
0
10
48.9261844
20
29.9466722
40
3.274068
50
238.7237692
51
255.7481809
0
ARC
8
0
10
48.7451273
20
29.6612556
40
2.9361387
50
216.8540532
51
238.8519108
0
ARC
8
0
10
48.405734
20
29.4153848
40
2.5171088
50
180.4556761
51
217.0093726
0
ARC
8
0
10
48.400513
20
29.4084739
40
2.5118425
50
180.0007943
51
180.2989892
0
ARC
8
0
10
43.3261831
20
29.4267024
40
2.5625526
50
314.3038821
51
359.5916508
0
ARC
8
0
10
42.948589
20
29.7674094
40
3.0702832
50
295.1135603
51
314.9057599
0
ARC
8
0
10
42.8231683
20
30.022611
40
3.3545947
50
279.3688344
51
295.2032873
0
ARC
8
0
10
42.7901904
20
30.2018912
40
3.5368535
50
269.9658887
51
279.4231535
0
ARC
8
0
10
42.7833944
20
30.1677547
40
3.5027195
50
255.7128838
51
270.0767229
0
ARC
8
0
10
42.7250127
20
29.9466722
40
3.274068
50
238.7237692
51
255.7481809
0
ARC
8
0
10
42.5439556
20
29.6612556
40
2.9361387
50
216.8540532
51
238.8519108
0
ARC
8
0
10
42.2045623
20
29.4153848
40
2.5171088
50
180.4556761
51
217.0093726
0
ARC
8
0
10
42.1993413
20
29.4084739
40
2.5118425
50
180.0007943
51
180.2989892
0
ARC
8
0
10
24.031422
20
19.778306
40
3.2537359
50
359.9294075
51
16.8043843
0
ARC
8
0
10
24.108836
20
19.8009988
40
3.1730671
50
16.8162471
51
43.9167183
0
ARC
8
0
10
24.1806788
20
19.8769587
40
3.0686323
50
43.8254785
51
78.0398026
0
ARC
8
0
10
24.1864265
20
19.8737121
40
3.0706238
50
78.1572766
51
90.0346481
0
ARC
8
0
10
24.1810939
20
19.8914412
40
3.0528961
50
89.9347681
51
108.6242848
0
ARC
8
0
10
24.221918
20
19.8251165
40
3.1288341
50
108.9448372
51
160.9663991
0
ARC
8
0
10
24.3222928
20
19.7809085
40
3.238151
50
160.8061523
51
178.2515769
0
ARC
8
0
10
24.4154692
20
19.7743745
40
3.3314855
50
178.1881497
51
180.0013313
0
ARC
8
0
10
17.8302503
20
19.778306
40
3.2537359
50
359.9294075
51
16.8043843
0
ARC
8
0
10
17.9076643
20
19.8009988
40
3.1730671
50
16.8162471
51
43.9167183
0
ARC
8
0
10
17.9795071
20
19.8769587
40
3.0686323
50
43.8254785
51
78.0398026
0
ARC
8
0
10
17.9852548
20
19.8737121
40
3.0706238
50
78.1572766
51
90.0346481
0
ARC
8
0
10
17.9799222
20
19.8914388
40
3.0528985
50
89.9347677
51
108.6242768
0
ARC
8
0
10
18.020745
20
19.825118
40
3.1288323
50
108.9448297
51
160.9664186
0
ARC
8
0
10
18.1211294
20
19.7809076
40
3.2381593
50
160.8061862
51
178.2515655
0
ARC
8
0
10
18.2142975
20
19.7743745
40
3.3314855
50
178.1881497
51
180.0013313
0
ARC
8
0
10
36.5711654
20
19.8475176
40
3.1163358
50
359.93072
51
17.7883753
0
ARC
8
0
10
36.5930186
20
19.8497503
40
3.0948487
50
17.8726158
51
73.767005
0
ARC
8
0
10
36.5901981
20
19.8233124
40
3.1210246
50
73.8529662
51
90.0603077
0
ARC
8
0
10
36.5831443
20
19.8280096
40
3.116328
50
89.9307086
51
107.7884104
0
ARC
8
0
10
36.5809167
20
19.8498507
40
3.0948539
50
107.8726729
51
163.7669765
0
ARC
8
0
10
36.6073414
20
19.8470343
40
3.1210159
50
163.8529435
51
180.0603037
0
ARC
8
0
10
30.3700015
20
19.847517
40
3.1163279
50
359.9307317
51
17.7884338
0
ARC
8
0
10
30.3918406
20
19.8497436
40
3.0948563
50
17.8727005
51
73.766965
0
ARC
8
0
10
30.3890259
20
19.8233237
40
3.1210133
50
73.8529372
51
90.0602976
0
ARC
8
0
10
30.3819726
20
19.8280146
40
3.116323
50
89.9307094
51
107.788426
0
ARC
8
0
10
30.3797471
20
19.8498485
40
3.0948563
50
107.8726841
51
163.7669481
0
ARC
8
0
10
30.4061698
20
19.8470343
40
3.1210159
50
163.8529433
51
180.0603036
0
ARC
8
0
10
61.9296982
20
20.1826713
40
2.5625526
50
0.4083492
51
45.6961179
0
ARC
8
0
10
61.5521041
20
19.8419642
40
3.0702832
50
45.0942401
51
64.8864397
0
ARC
8
0
10
61.4266834
20
19.5867626
40
3.3545947
50
64.7967127
51
80.6311656
0
ARC
8
0
10
61.3937055
20
19.4074824
40
3.5368535
50
80.5768465
51
90.0341113
0
ARC
8
0
10
61.3869095
20
19.4416189
40
3.5027195
50
89.9232771
51
104.2871162
0
ARC
8
0
10
61.3285278
20
19.6627014
40
3.274068
50
104.2518191
51
121.2762308
0
ARC
8
0
10
61.1474707
20
19.948118
40
2.9361387
50
121.1480892
51
143.1459468
0
ARC
8
0
10
60.8080774
20
20.1939888
40
2.5171088
50
142.9906274
51
179.5443239
0
ARC
8
0
10
60.8028564
20
20.2008997
40
2.5118425
50
179.7010108
51
179.9992057
0
ARC
8
0
10
55.7285265
20
20.1826713
40
2.5625526
50
0.4083492
51
45.6961179
0
ARC
8
0
10
55.3509324
20
19.8419642
40
3.0702832
50
45.0942401
51
64.8864397
0
ARC
8
0
10
55.2255117
20
19.5867626
40
3.3545947
50
64.7967127
51
80.6311656
0
ARC
8
0
10
55.1925338
20
19.4074824
40
3.5368535
50
80.5768465
51
90.0341113
0
ARC
8
0
10
55.1857378
20
19.4416189
40
3.5027195
50
89.9232771
51
104.2871162
0
ARC
8
0
10
55.1273561
20
19.6627014
40
3.274068
50
104.2518191
51
121.2762308
0
ARC
8
0
10
54.946299
20
19.948118
40
2.9361387
50
121.1480892
51
143.1459468
0
ARC
8
0
10
54.6069057
20
20.1939888
40
2.5171088
50
142.9906274
51
179.5443239
0
ARC
8
0
10
54.6016847
20
20.2008997
40
2.5118425
50
179.7010108
51
179.9992057
0
ARC
8
0
10
49.5273548
20
20.1826713
40
2.5625526
50
0.4083492
51
45.6961179
0
ARC
8
0
10
49.1497607
20
19.8419642
40
3.0702832
50
45.0942401
51
64.8864397
0
ARC
8
0
10
49.02434
20
19.5867626
40
3.3545947
50
64.7967127
51
80.6311656
0
ARC
8
0
10
48.9913621
20
19.4074824
40
3.5368535
50
80.5768465
51
90.0341113
0
ARC
8
0
10
48.9845661
20
19.4416189
40
3.5027195
50
89.9232771
51
104.2871162
0
ARC
8
0
10
48.9261844
20
19.6627014
40
3.274068
50
104.2518191
51
121.2762308
0
ARC
8
0
10
48.7451273
20
19.948118
40
2.9361387
50
121.1480892
51
143.1459468
0
ARC
8
0
10
48.405734
20
20.1939888
40
2.5171088
50
142.9906274
51
179.5443239
0
ARC
8
0
10
48.400513
20
20.2008997
40
2.5118425
50
179.7010108
51
179.9992057
0
ARC
8
0
10
43.3261831
20
20.1826713
40
2.5625526
50
0.4083492
51
45.6961179
0
ARC
8
0
10
42.948589
20
19.8419642
40
3.0702832
50
45.0942401
51
64.8864397
0
ARC
8
0
10
42.8231683
20
19.5867626
40
3.3545947
50
64.7967127
51
80.6311656
0
ARC
8
0
10
42.7901904
20
19.4074824
40
3.5368535
50
80.5768465
51
90.0341113
0
ARC
8
0
10
42.7833944
20
19.4416189
40
3.5027195
50
89.9232771
51
104.2871162
0
ARC
8
0
10
42.7250127
20
19.6627014
40
3.274068
50
104.2518191
51
121.2762308
0
ARC
8
0
10
42.5439556
20
19.948118
40
2.9361387
50
121.1480892
51
143.1459468
0
ARC
8
0
10
42.2045623
20
20.1939888
40
2.5171088
50
142.9906274
51
179.5443239
0
ARC
8
0
10
42.1993413
20
20.2008997
40
2.5118425
50
179.7010108
51
179.9992057
0
LINE
8
DEFAULT_255_2_778
10
64.4921857
20
53.9501938
11
64.4921857
21
29.4084391
0
LINE
8
DEFAULT_255_2_778
10
39.6874989
20
29.4084391
11
39.6874989
21
53.9501938
0
LINE
8
DEFAULT_255_2_778
10
27.2851555
20
-4.3408202
11
27.2851555
21
19.7742971
0
LINE
8
DEFAULT_255_2_778
10
14.8828121
20
19.7742971
11
14.8828121
21
-4.3408202
0
LINE
8
DEFAULT_255_2_778
10
64.4921857
20
-4.3408202
11
64.4921857
21
20.2009345
0
LINE
8
DEFAULT_255_2_778
10
39.6874989
20
20.2009345
11
39.6874989
21
-4.3408202
0
ARC
8
0
10
24.031422
20
29.8310544
40
3.2537359
50
343.1956157
51
0.0705925
0
ARC
8
0
10
24.108836
20
29.8083616
40
3.1730671
50
316.0832817
51
343.1837529
0
ARC
8
0
10
24.1806788
20
29.7324017
40
3.0686323
50
281.9601974
51
316.1745215
0
ARC
8
0
10
24.1864265
20
29.7356483
40
3.0706238
50
269.9653519
51
281.8427234
0
ARC
8
0
10
24.1810939
20
29.7179192
40
3.0528961
50
251.3757152
51
270.0652319
0
ARC
8
0
10
24.221918
20
29.7842439
40
3.1288341
50
199.0336009
51
251.0551628
0
ARC
8
0
10
24.3222928
20
29.8284519
40
3.238151
50
181.7484231
51
199.1938477
0
ARC
8
0
10
24.4154692
20
29.8349859
40
3.3314855
50
179.9986687
51
181.8118503
0
ARC
8
0
10
17.8302503
20
29.8310544
40
3.2537359
50
343.1956157
51
0.0705925
0
ARC
8
0
10
17.9076643
20
29.8083616
40
3.1730671
50
316.0832817
51
343.1837529
0
ARC
8
0
10
17.9795071
20
29.7324017
40
3.0686323
50
281.9601974
51
316.1745215
0
ARC
8
0
10
17.9852548
20
29.7356483
40
3.0706238
50
269.9653519
51
281.8427234
0
ARC
8
0
10
17.9799222
20
29.7179216
40
3.0528985
50
251.3757232
51
270.0652323
0
ARC
8
0
10
18.020745
20
29.7842424
40
3.1288323
50
199.0335814
51
251.0551703
0
ARC
8
0
10
18.1211294
20
29.8284528
40
3.2381593
50
181.7484345
51
199.1938138
0
ARC
8
0
10
18.2142975
20
29.8349859
40
3.3314855
50
179.9986687
51
181.8118503
0
ARC
8
0
10
36.5711654
20
29.7618428
40
3.1163358
50
342.2116247
51
0.06928
0
ARC
8
0
10
36.5930186
20
29.7596101
40
3.0948487
50
286.232995
51
342.1273842
0
ARC
8
0
10
36.5901981
20
29.786048
40
3.1210246
50
269.9396923
51
286.1470338
0
ARC
8
0
10
36.5831443
20
29.7813508
40
3.116328
50
252.2115896
51
270.0692914
0
ARC
8
0
10
36.5809167
20
29.7595097
40
3.0948539
50
196.2330235
51
252.1273271
0
ARC
8
0
10
36.6073414
20
29.7623261
40
3.1210159
50
179.9396963
51
196.1470565
0
ARC
8
0
10
30.3700015
20
29.7618434
40
3.1163279
50
342.2115662
51
0.0692683
0
ARC
8
0
10
30.3918406
20
29.7596168
40
3.0948563
50
286.233035
51
342.1272995
0
ARC
8
0
10
30.3890259
20
29.7860367
40
3.1210133
50
269.9397024
51
286.1470628
0
ARC
8
0
10
30.3819726
20
29.7813458
40
3.116323
50
252.211574
51
270.0692906
0
ARC
8
0
10
30.3797471
20
29.7595119
40
3.0948563
50
196.2330519
51
252.1273159
0
ARC
8
0
10
30.4061698
20
29.7623261
40
3.1210159
50
179.9396964
51
196.1470567
0
LINE
8
DEFAULT_255_2_778
10
27.2851555
20
53.9501806
11
27.2851555
21
29.8350633
0
LINE
8
DEFAULT_255_2_778
10
14.8828121
20
29.8350633
11
14.8828121
21
53.9501806
0
LINE
8
DEFAULT_4_2_778
10
11.7822262
20
53.9501806
11
17.9833979
21
53.9501806
0
LINE
8
DEFAULT_4_2_778
10
14.8828187
20
57.050773
11
14.8828187
21
53.9501872
0
LINE
8
DEFAULT_4_2_778
10
36.5869197
20
53.9501872
11
42.7880914
21
53.9501872
0
LINE
8
DEFAULT_4_2_778
10
39.6874923
20
57.0507863
11
39.6874923
21
53.9502004
0
LINE
8
DEFAULT_4_2_778
10
11.7822196
20
-4.3408136
11
17.9833913
21
-4.3408136
0
LINE
8
DEFAULT_4_2_778
10
14.8828187
20
-4.3408136
11
14.8828187
21
-7.4413994
0
LINE
8
DEFAULT_4_2_778
10
24.1845763
20
-4.3408136
11
30.385748
21
-4.3408136
0
LINE
8
DEFAULT_4_2_778
10
27.2851555
20
-4.3408268
11
27.2851555
21
-7.4414127
0
LINE
8
DEFAULT_4_2_778
10
24.1845696
20
53.9501872
11
30.3857413
21
53.9501872
0
LINE
8
DEFAULT_4_2_778
10
27.2851621
20
57.050773
11
27.2851621
21
53.9501872
0
LINE
8
DEFAULT_4_2_778
10
61.3916065
20
53.9501872
11
67.5927782
21
53.9501872
0
LINE
8
DEFAULT_4_2_778
10
64.4921791
20
57.0507863
11
64.4921791
21
53.9502004
0
LINE
8
DEFAULT_4_2_778
10
36.5869064
20
-4.3408136
11
42.7880781
21
-4.3408136
0
LINE
8
DEFAULT_4_2_778
10
39.6875055
20
-4.3408136
11
39.6875055
21
-7.4413994
0
LINE
8
DEFAULT_4_2_778
10
61.3916065
20
-4.3408136
11
67.5927782
21
-4.3408136
0
LINE
8
DEFAULT_4_2_778
10
64.4921857
20
-4.3408136
11
64.4921857
21
-7.4413994
0
ENDSEC
0
EOF