0
SECTION
2
HEADER
0
ENDSEC
0
SECTION
2
TABLES
0
TABLE
2
LTYPE
0
LTYPE
72
65
70
64
2
CONTINUOUS
3
______
73
0
40
0
0
ENDTAB
0
TABLE
2
LAYER
0
LAYER
2
DEFAULT_255_2_778
70
0
62
255
6
CONTINUOUS
0
LAYER
2
DEFAULT_4_2_778
70
0
62
4
6
CONTINUOUS
0
ENDTAB
0
ENDSEC
0
SECTION
2
ENTITIES
0
ARC
8
0
10
21.0904517
20
32.6361184
40
2.7105679
50
72.4884225
51
90.1364459
0
ARC
8
0
10
21.1763685
20
32.8883114
40
2.4442179
50
45.0617617
51
72.6302552
0
ARC
8
0
10
21.3050418
20
33.0267044
40
2.2553761
50
14.7081506
51
44.892335
0
ARC
8
0
10
21.1627854
20
32.9923811
40
2.4016873
50
359.8600118
51
14.6384968
0
ARC
8
0
10
21.0935839
20
32.9666298
40
2.4709615
50
0.0000951
51
0.4610531
0
ARC
8
0
10
21.0964591
20
32.9666644
40
2.4680862
50
315.31619
51
359.9992928
0
ARC
8
0
10
21.0964774
20
32.9666641
40
2.4680731
50
270.1709141
51
315.315896
0
ARC
8
0
10
21.0964783
20
28.0305277
40
2.4680851
50
44.6844155
51
89.8291087
0
ARC
8
0
10
21.0964432
20
28.0305388
40
2.4681023
50
0.0007674
51
44.6836589
0
ARC
8
0
10
21.0935839
20
28.0305759
40
2.4709614
50
359.5389469
51
359.9999049
0
ARC
8
0
10
20.9524869
20
28.0166284
40
2.6119853
50
331.568232
51
359.8697935
0
ARC
8
0
10
21.0143075
20
27.9387775
40
2.5208575
50
277.4587291
51
332.4553079
0
ARC
8
0
10
21.0841787
20
27.7246458
40
2.2998417
50
269.9954667
51
276.4252066
0
ARC
8
0
10
21.0897521
20
22.7762109
40
2.6485993
50
71.561338
51
90.1245036
0
ARC
8
0
10
21.1665775
20
22.9832423
40
2.4279087
50
38.163287
51
71.7359591
0
ARC
8
0
10
21.2580446
20
23.0683788
40
2.3034098
50
11.8648146
51
37.9040737
0
ARC
8
0
10
21.1226399
20
23.0396513
40
2.441828
50
359.9169858
51
11.8712453
0
ARC
8
0
10
20.9749109
20
23.0399866
40
2.5895574
50
333.142529
51
359.9143048
0
ARC
8
0
10
21.0200586
20
22.97974
40
2.5222824
50
277.4899322
51
333.9001575
0
ARC
8
0
10
21.0842091
20
22.7885207
40
2.3246542
50
269.9947653
51
276.5366067
0
ARC
8
0
10
21.0893441
20
17.8430525
40
2.6208196
50
71.1849719
51
90.1169035
0
ARC
8
0
10
21.1826042
20
18.0595237
40
2.3859094
50
17.5448929
51
71.6283202
0
ARC
8
0
10
21.1458014
20
18.0674885
40
2.4186712
50
359.8588554
51
17.1021747
0
ARC
8
0
10
20.9957404
20
18.0636409
40
2.5687259
50
334.7426742
51
359.9529232
0
ARC
8
0
10
21.0268148
20
18.0187165
40
2.5216022
50
277.5042404
51
335.3646023
0
ARC
8
0
10
21.0842504
20
17.8527948
40
2.3498654
50
269.9938152
51
276.644128
0
LINE
8
DEFAULT_255_2_778
10
21.0839967
20
53.9501938
11
21.0839967
21
35.3466787
0
LINE
8
DEFAULT_255_2_778
10
21.0839967
20
15.5029293
11
21.0839967
21
-4.3408202
0
LINE
8
DEFAULT_255_2_778
10
21.0839838
20
25.4247908
11
8.6816404
21
25.4247908
0
LINE
8
DEFAULT_255_2_778
10
8.6816404
20
25.4247908
11
8.6816404
21
-4.3408334
0
LINE
8
DEFAULT_4_2_778
10
17.9833979
20
53.9501806
11
24.1845696
21
53.9501806
0
LINE
8
DEFAULT_4_2_778
10
21.0839772
20
57.0507863
11
21.0839772
21
53.9502004
0
LINE
8
DEFAULT_4_2_778
10
5.5810479
20
-4.3408136
11
11.7822196
21
-4.3408136
0
LINE
8
DEFAULT_4_2_778
10
8.681647
20
-4.3408136
11
8.681647
21
-7.4413994
0
LINE
8
DEFAULT_4_2_778
10
17.9834046
20
-4.3408136
11
24.1845763
21
-4.3408136
0
LINE
8
DEFAULT_4_2_778
10
21.0839838
20
-4.3408136
11
21.0839838
21
-7.4413994
0
LINE
8
DEFAULT_255_2_778
10
45.8886706
20
25.4247908
11
33.4863272
21
25.4247908
0
LINE
8
DEFAULT_255_2_778
10
33.4863272
20
25.4247908
11
33.4863272
21
-4.3408334
0
ARC
8
0
10
45.8951385
20
32.6361184
40
2.7105679
50
72.4884225
51
90.1364459
0
ARC
8
0
10
45.9810552
20
32.8883114
40
2.4442179
50
45.0617617
51
72.6302552
0
ARC
8
0
10
46.1097285
20
33.0267044
40
2.2553761
50
14.7081506
51
44.892335
0
ARC
8
0
10
45.9674721
20
32.9923811
40
2.4016873
50
359.8600118
51
14.6384968
0
ARC
8
0
10
45.9050427
20
32.9666323
40
2.4641896
50
359.9995194
51
0.4622614
0
ARC
8
0
10
45.901204
20
32.9666428
40
2.4680283
50
315.3155627
51
359.9992761
0
ARC
8
0
10
45.9011601
20
32.9666688
40
2.4680779
50
270.1711945
51
315.3158507
0
ARC
8
0
10
45.901161
20
28.030523
40
2.4680899
50
44.6844608
51
89.8288283
0
ARC
8
0
10
45.9011873
20
28.0305602
40
2.468045
50
0.0007874
51
44.6842767
0
ARC
8
0
10
45.9050427
20
28.0305734
40
2.4641896
50
359.5377386
51
0.0004806
0
ARC
8
0
10
45.7571736
20
28.0166284
40
2.6119853
50
331.568232
51
359.8697935
0
ARC
8
0
10
45.8189942
20
27.9387775
40
2.5208575
50
277.4587291
51
332.4553079
0
ARC
8
0
10
45.8888654
20
27.7246458
40
2.2998417
50
269.9954667
51
276.4252066
0
ARC
8
0
10
45.8944388
20
22.7762109
40
2.6485993
50
71.561338
51
90.1245036
0
ARC
8
0
10
45.9712642
20
22.9832423
40
2.4279087
50
38.163287
51
71.7359591
0
ARC
8
0
10
46.0627313
20
23.0683788
40
2.3034098
50
11.8648146
51
37.9040737
0
ARC
8
0
10
45.9273266
20
23.0396513
40
2.441828
50
359.9169858
51
11.8712453
0
ARC
8
0
10
45.7795977
20
23.0399866
40
2.5895574
50
333.142529
51
359.9143048
0
ARC
8
0
10
45.8247453
20
22.97974
40
2.5222824
50
277.4899322
51
333.9001575
0
ARC
8
0
10
45.8888958
20
22.7885207
40
2.3246542
50
269.9947653
51
276.5366067
0
ARC
8
0
10
45.8940308
20
17.8430525
40
2.6208196
50
71.1849719
51
90.1169035
0
ARC
8
0
10
45.9872909
20
18.0595237
40
2.3859094
50
17.5448929
51
71.6283202
0
ARC
8
0
10
45.9504882
20
18.0674885
40
2.4186712
50
359.8588554
51
17.1021747
0
ARC
8
0
10
45.8004271
20
18.0636409
40
2.5687259
50
334.7426742
51
359.9529232
0
ARC
8
0
10
45.8315015
20
18.0187165
40
2.5216022
50
277.5042404
51
335.3646023
0
ARC
8
0
10
45.8889371
20
17.8527948
40
2.3498654
50
269.9938152
51
276.644128
0
LINE
8
DEFAULT_255_2_778
10
45.8886834
20
53.9501938
11
45.8886834
21
35.3466787
0
LINE
8
DEFAULT_255_2_778
10
45.8886834
20
15.5029293
11
45.8886834
21
-4.3408202
0
LINE
8
DEFAULT_255_2_778
10
70.6933574
20
25.4247908
11
58.291014
21
25.4247908
0
LINE
8
DEFAULT_255_2_778
10
58.291014
20
25.4247908
11
58.291014
21
-4.3408334
0
ARC
8
0
10
70.6998253
20
32.6361184
40
2.7105679
50
72.4884225
51
90.1364459
0
ARC
8
0
10
70.785742
20
32.8883114
40
2.4442179
50
45.0617617
51
72.6302552
0
ARC
8
0
10
70.9144153
20
33.0267044
40
2.2553761
50
14.7081506
51
44.892335
0
ARC
8
0
10
70.7721589
20
32.9923811
40
2.4016873
50
359.8600118
51
14.6384968
0
ARC
8
0
10
70.7096312
20
32.9666319
40
2.4642879
50
359.9995195
51
0.4622521
0
ARC
8
0
10
70.7058945
20
32.9666371
40
2.4680245
50
315.3156636
51
359.9994013
0
ARC
8
0
10
70.705849
20
32.9666734
40
2.4680825
50
270.1710513
51
315.3158061
0
ARC
8
0
10
70.70585
20
28.0305184
40
2.4680945
50
44.6845054
51
89.8289715
0
ARC
8
0
10
70.7058778
20
28.0305659
40
2.4680412
50
0.0006622
51
44.6841758
0
ARC
8
0
10
70.7096312
20
28.0305738
40
2.4642878
50
359.5377479
51
0.0004805
0
ARC
8
0
10
70.5618604
20
28.0166284
40
2.6119853
50
331.568232
51
359.8697935
0
ARC
8
0
10
70.623681
20
27.9387775
40
2.5208575
50
277.4587291
51
332.4553079
0
ARC
8
0
10
70.6935522
20
27.7246458
40
2.2998417
50
269.9954667
51
276.4252066
0
ARC
8
0
10
70.6991256
20
22.7762109
40
2.6485993
50
71.561338
51
90.1245036
0
ARC
8
0
10
70.775951
20
22.9832423
40
2.4279087
50
38.163287
51
71.7359591
0
ARC
8
0
10
70.8674181
20
23.0683788
40
2.3034098
50
11.8648146
51
37.9040737
0
ARC
8
0
10
70.7320134
20
23.0396513
40
2.441828
50
359.9169858
51
11.8712453
0
ARC
8
0
10
70.5842845
20
23.0399866
40
2.5895574
50
333.142529
51
359.9143048
0
ARC
8
0
10
70.6294321
20
22.97974
40
2.5222824
50
277.4899322
51
333.9001575
0
ARC
8
0
10
70.6935826
20
22.7885207
40
2.3246542
50
269.9947653
51
276.5366067
0
ARC
8
0
10
70.6987176
20
17.8430525
40
2.6208196
50
71.1849719
51
90.1169035
0
ARC
8
0
10
70.7919777
20
18.0595237
40
2.3859094
50
17.5448929
51
71.6283202
0
ARC
8
0
10
70.755175
20
18.0674885
40
2.4186712
50
359.8588554
51
17.1021747
0
ARC
8
0
10
70.6051139
20
18.0636409
40
2.5687259
50
334.7426742
51
359.9529232
0
ARC
8
0
10
70.6361883
20
18.0187165
40
2.5216022
50
277.5042404
51
335.3646023
0
ARC
8
0
10
70.6936239
20
17.8527948
40
2.3498654
50
269.9938152
51
276.644128
0
LINE
8
DEFAULT_255_2_778
10
70.6933703
20
53.9501938
11
70.6933703
21
35.3466787
0
LINE
8
DEFAULT_255_2_778
10
70.6933703
20
15.5029293
11
70.6933703
21
-4.3408202
0
LINE
8
DEFAULT_4_2_778
10
42.7880847
20
53.9501806
11
48.9892564
21
53.9501806
0
LINE
8
DEFAULT_4_2_778
10
45.8886772
20
57.050773
11
45.8886772
21
53.9501872
0
LINE
8
DEFAULT_4_2_778
10
67.5927782
20
53.9501872
11
73.7939499
21
53.9501872
0
LINE
8
DEFAULT_4_2_778
10
70.6933508
20
57.0507863
11
70.6933508
21
53.9502004
0
LINE
8
DEFAULT_4_2_778
10
30.3857347
20
-4.3408136
11
36.5869064
21
-4.3408136
0
LINE
8
DEFAULT_4_2_778
10
33.4863338
20
-4.3408136
11
33.4863338
21
-7.4413994
0
LINE
8
DEFAULT_4_2_778
10
42.7880914
20
-4.3408136
11
48.9892631
21
-4.3408136
0
LINE
8
DEFAULT_4_2_778
10
45.8886772
20
-4.3408136
11
45.8886772
21
-7.4413994
0
LINE
8
DEFAULT_4_2_778
10
55.1904348
20
-4.3408136
11
61.3916065
21
-4.3408136
0
LINE
8
DEFAULT_4_2_778
10
58.2910206
20
-4.3408136
11
58.2910206
21
-7.4413994
0
LINE
8
DEFAULT_4_2_778
10
67.5927782
20
-4.3408136
11
73.7939499
21
-4.3408136
0
LINE
8
DEFAULT_4_2_778
10
70.6933574
20
-4.3408136
11
70.6933574
21
-7.4413994
0
ENDSEC
0
EOF