0
SECTION
2
HEADER
0
ENDSEC
0
SECTION
2
TABLES
0
TABLE
2
LTYPE
0
LTYPE
72
65
70
64
2
CONTINUOUS
3
______
73
0
40
0
0
ENDTAB
0
TABLE
2
LAYER
0
LAYER
2
DEFAULT_255_2_778
70
0
62
255
6
CONTINUOUS
0
LAYER
2
DEFAULT_4_2_778
70
0
62
4
6
CONTINUOUS
0
ENDTAB
0
ENDSEC
0
SECTION
2
ENTITIES
0
ARC
8
0
10
27.0571212
20
-25.0300917
40
2.2552162
50
225.025691
51
269.3337809
0
ARC
8
0
10
27.5118673
20
-24.5100265
40
2.9448899
50
209.0266427
51
225.9183404
0
ARC
8
0
10
27.9123171
20
-24.2816688
40
3.4058479
50
194.719405
51
209.1169794
0
ARC
8
0
10
28.2311478
20
-24.1948162
40
3.7362844
50
181.7675069
51
194.7652869
0
ARC
8
0
10
28.3879509
20
-24.1846772
40
3.8933292
50
179.9984171
51
181.8454704
0
ARC
8
0
10
28.2711625
20
-24.1794676
40
3.7765443
50
167.1329618
51
180.0774061
0
ARC
8
0
10
27.9634981
20
-24.1068372
40
3.4604323
50
153.0729434
51
167.1709281
0
ARC
8
0
10
27.5762616
20
-23.9056619
40
3.0240777
50
137.0583458
51
153.1487743
0
ARC
8
0
10
27.174008
20
-23.5177584
40
2.4653683
50
113.1826032
51
137.289059
0
ARC
8
0
10
27.0317111
20
-23.215692
40
2.1317085
50
90.0218329
51
112.8628954
0
ARC
8
0
10
27.0571212
20
-18.82892
40
2.2552162
50
225.025691
51
269.3337809
0
ARC
8
0
10
27.5118673
20
-18.3088548
40
2.9448899
50
209.0266427
51
225.9183404
0
ARC
8
0
10
27.9123171
20
-18.0804971
40
3.4058479
50
194.719405
51
209.1169794
0
ARC
8
0
10
28.2311478
20
-17.9936445
40
3.7362844
50
181.7675069
51
194.7652869
0
ARC
8
0
10
28.3879509
20
-17.9835055
40
3.8933292
50
179.9984171
51
181.8454704
0
ARC
8
0
10
28.2711625
20
-17.9782959
40
3.7765443
50
167.1329618
51
180.0774061
0
ARC
8
0
10
27.9634981
20
-17.9056655
40
3.4604323
50
153.0729434
51
167.1709281
0
ARC
8
0
10
27.5762616
20
-17.7044902
40
3.0240777
50
137.0583458
51
153.1487743
0
ARC
8
0
10
27.174008
20
-17.3165867
40
2.4653683
50
113.1826032
51
137.289059
0
ARC
8
0
10
27.0317111
20
-17.0145203
40
2.1317085
50
90.0218329
51
112.8628954
0
LINE
8
DEFAULT_255_2_778
10
51.7797771
20
-27.2851555
11
27.0308988
21
-27.2851555
0
LINE
8
DEFAULT_255_2_778
10
27.0308988
20
-14.8828121
11
51.7797771
21
-14.8828121
0
LINE
8
DEFAULT_4_2_778
10
51.7797771
20
-11.7822262
11
51.7797771
21
-17.9833979
0
LINE
8
DEFAULT_4_2_778
10
51.7797837
20
-14.8828187
11
54.8803696
21
-14.8828187
0
LINE
8
DEFAULT_4_2_778
10
51.7797837
20
-24.1845763
11
51.7797837
21
-30.385748
0
LINE
8
DEFAULT_4_2_778
10
51.7797837
20
-27.2851555
11
54.8803696
21
-27.2851555
0
ENDSEC
0
EOF