0
SECTION
2
HEADER
0
ENDSEC
0
SECTION
2
TABLES
0
TABLE
2
LTYPE
0
LTYPE
72
65
70
64
2
CONTINUOUS
3
______
73
0
40
0
0
ENDTAB
0
TABLE
2
LAYER
0
LAYER
2
DEFAULT_255_2_778
70
0
62
255
6
CONTINUOUS
0
LAYER
2
DEFAULT_4_2_778
70
0
62
4
6
CONTINUOUS
0
ENDTAB
0
ENDSEC
0
SECTION
2
ENTITIES
0
ARC
8
0
10
30.8283204
20
12.258294
40
2.3365624
50
224.2897358
51
269.3657612
0
ARC
8
0
10
31.2662703
20
12.7490847
40
2.9931134
50
208.0035835
51
225.1607929
0
ARC
8
0
10
31.626941
20
12.9465866
40
3.4042923
50
193.3858862
51
208.0883002
0
ARC
8
0
10
31.9122471
20
13.0169879
40
3.6981466
50
180.1330248
51
193.4236568
0
ARC
8
0
10
32.0131279
20
13.0224029
40
3.7990432
50
179.9991307
51
180.2111605
0
ARC
8
0
10
31.9164287
20
13.0274446
40
3.7023474
50
166.7954686
51
180.0771308
0
ARC
8
0
10
31.6303296
20
13.0969911
40
3.4079268
50
152.0081391
51
166.835058
0
ARC
8
0
10
31.2656397
20
13.2960953
40
2.9924554
50
134.6964099
51
152.0970963
0
ARC
8
0
10
30.8279803
20
13.787884
40
2.3353021
50
90.6262376
51
135.5500566
0
ARC
8
0
10
30.8283204
20
18.4594657
40
2.3365624
50
224.2897358
51
269.3657612
0
ARC
8
0
10
31.2662703
20
18.9502564
40
2.9931134
50
208.0035835
51
225.1607929
0
ARC
8
0
10
31.626941
20
19.1477583
40
3.4042923
50
193.3858862
51
208.0883002
0
ARC
8
0
10
31.9122471
20
19.2181596
40
3.6981466
50
180.1330248
51
193.4236568
0
ARC
8
0
10
32.0131279
20
19.2235746
40
3.7990432
50
179.9991307
51
180.2111605
0
ARC
8
0
10
31.9164287
20
19.2286163
40
3.7023474
50
166.7954686
51
180.0771308
0
ARC
8
0
10
31.6303296
20
19.2981629
40
3.4079268
50
152.0081391
51
166.835058
0
ARC
8
0
10
31.2656397
20
19.497267
40
2.9924554
50
134.6964099
51
152.0970963
0
ARC
8
0
10
30.8279803
20
19.9890557
40
2.3353021
50
90.6262376
51
135.5500566
0
LINE
8
DEFAULT_255_2_778
10
51.5069352
20
9.9218747
11
30.8024562
21
9.9218747
0
LINE
8
DEFAULT_255_2_778
10
30.8024562
20
22.3242181
11
51.5069352
21
22.3242181
0
ARC
8
0
10
30.8283193
20
-12.5463934
40
2.3365618
50
224.2897558
51
269.3657882
0
ARC
8
0
10
31.2662698
20
-12.0556033
40
2.9931127
50
208.0035833
51
225.1607927
0
ARC
8
0
10
31.6269383
20
-11.8581023
40
3.4042894
50
193.3858742
51
208.0883035
0
ARC
8
0
10
31.912251
20
-11.7876992
40
3.6981505
50
180.1330218
51
193.4236507
0
ARC
8
0
10
32.0131324
20
-11.7822839
40
3.7990477
50
179.9991307
51
180.2111605
0
ARC
8
0
10
31.9164327
20
-11.777242
40
3.7023513
50
166.7954747
51
180.0771336
0
ARC
8
0
10
31.6303302
20
-11.7076951
40
3.4079274
50
152.0081397
51
166.8350585
0
ARC
8
0
10
31.2656392
20
-11.5085903
40
2.9924548
50
134.69641
51
152.0970965
0
ARC
8
0
10
30.8279802
20
-11.0168044
40
2.3353035
50
90.6262332
51
135.5500155
0
ARC
8
0
10
30.8283193
20
-6.3452217
40
2.3365618
50
224.2897558
51
269.3657882
0
ARC
8
0
10
31.2662698
20
-5.8544316
40
2.9931127
50
208.0035833
51
225.1607927
0
ARC
8
0
10
31.6269383
20
-5.6569305
40
3.4042894
50
193.3858742
51
208.0883035
0
ARC
8
0
10
31.912251
20
-5.5865275
40
3.6981505
50
180.1330218
51
193.4236507
0
ARC
8
0
10
32.0131324
20
-5.5811122
40
3.7990477
50
179.9991307
51
180.2111605
0
ARC
8
0
10
31.9164327
20
-5.5760703
40
3.7023513
50
166.7954747
51
180.0771336
0
ARC
8
0
10
31.6303302
20
-5.5065234
40
3.4079274
50
152.0081397
51
166.8350585
0
ARC
8
0
10
31.2656392
20
-5.3074186
40
2.9924548
50
134.69641
51
152.0970965
0
ARC
8
0
10
30.8279802
20
-4.8156327
40
2.3353035
50
90.6262332
51
135.5500155
0
LINE
8
DEFAULT_255_2_778
10
51.5069352
20
-14.8828121
11
30.8024562
21
-14.8828121
0
LINE
8
DEFAULT_255_2_778
10
30.8024562
20
-2.4804687
11
51.5069352
21
-2.4804687
0
LINE
8
DEFAULT_255_2_778
10
25.734856
20
22.3242181
11
25.734856
21
9.9218747
0
LINE
8
DEFAULT_255_2_778
10
25.734856
20
-2.4804687
11
25.734856
21
-14.8828121
0
LINE
8
DEFAULT_4_2_778
10
50.5395428
20
25.424804
11
50.5395428
21
19.2236323
0
LINE
8
DEFAULT_4_2_778
10
50.5395494
20
22.3242115
11
53.6401352
21
22.3242115
0
LINE
8
DEFAULT_4_2_778
10
50.5395494
20
13.022454
11
50.5395494
21
6.8212823
0
LINE
8
DEFAULT_4_2_778
10
50.5395494
20
9.9218681
11
53.6401352
21
9.9218681
0
LINE
8
DEFAULT_4_2_778
10
50.5395494
20
0.6201106
11
50.5395494
21
-5.5810611
0
LINE
8
DEFAULT_4_2_778
10
50.5395494
20
-2.4804753
11
53.6401352
21
-2.4804753
0
LINE
8
DEFAULT_4_2_778
10
50.5395494
20
-11.7822328
11
50.5395494
21
-17.9834046
0
LINE
8
DEFAULT_4_2_778
10
50.5395494
20
-14.8828121
11
53.6401352
21
-14.8828121
0
ENDSEC
0
EOF