0
SECTION
2
HEADER
0
ENDSEC
0
SECTION
2
TABLES
0
TABLE
2
LTYPE
0
LTYPE
72
65
70
64
2
CONTINUOUS
3
______
73
0
40
0
0
LTYPE
72
65
70
64
2
DASH_DEFAULT_255_2_778_064_085
3
______
73
2
40
2
49
-0.19921568073322585
49
0.2645833259738156
0
ENDTAB
0
TABLE
2
LAYER
0
LAYER
2
DEFAULT_255_2_778
70
0
62
255
6
CONTINUOUS
0
LAYER
2
DEFAULT_255_2_778_064_085
70
0
62
255
6
DASH_DEFAULT_255_2_778_064_085
0
LAYER
2
DEFAULT_4_2_778
70
0
62
4
6
CONTINUOUS
0
ENDTAB
0
ENDSEC
0
SECTION
2
ENTITIES
0
ARC
8
0
10
26.6726044
20
8.9952983
40
2.4880241
50
159.6503179
51
180.0830401
0
ARC
8
0
10
26.6594352
20
8.9968984
40
2.4751223
50
100.6655145
51
159.5790361
0
ARC
8
0
10
26.6636935
20
8.9593457
40
2.5128158
50
89.9690336
51
100.6024603
0
ARC
8
0
10
26.6686575
20
8.9841396
40
2.4880241
50
69.6503179
51
90.0830401
0
ARC
8
0
10
26.6702576
20
8.9973087
40
2.4751223
50
10.6655145
51
69.5790361
0
ARC
8
0
10
26.6327049
20
8.9930504
40
2.5128158
50
359.9690336
51
10.6024603
0
ARC
8
0
10
26.6575027
20
8.9880866
40
2.4880201
50
339.6502992
51
0.0830355
0
ARC
8
0
10
26.670666
20
8.9864884
40
2.4751246
50
280.6655505
51
339.5790236
0
ARC
8
0
10
26.6664096
20
9.0240391
40
2.5128158
50
269.9690336
51
280.6024604
0
ARC
8
0
10
26.6614451
20
8.9992392
40
2.4880182
50
249.65028
51
270.0830526
0
ARC
8
0
10
26.6598475
20
8.9860778
40
2.4751246
50
190.6655354
51
249.5790041
0
ARC
8
0
10
26.6973942
20
8.9903344
40
2.5128117
50
179.9690373
51
190.6024688
0
LINE
8
DEFAULT_255_2_778
10
24.1845829
20
8.9916924
11
24.1845829
21
8.9916924
0
ARC
8
0
10
52.7175136
20
8.9952983
40
2.4880122
50
159.6502166
51
180.0830397
0
ARC
8
0
10
52.7043622
20
8.996892
40
2.4751294
50
100.6655826
51
159.5789382
0
ARC
8
0
10
52.708615
20
8.9593589
40
2.5128026
50
89.9690413
51
100.6024868
0
ARC
8
0
10
52.713578
20
8.9841503
40
2.4880133
50
69.6502709
51
90.0830261
0
ARC
8
0
10
52.7151732
20
8.9973032
40
2.4751286
50
10.6656174
51
69.5790129
0
ARC
8
0
10
52.677649
20
8.9930515
40
2.5127928
50
359.9690089
51
10.6025339
0
ARC
8
0
10
52.7024357
20
8.9880866
40
2.4880083
50
339.6501978
51
0.0830351
0
ARC
8
0
10
52.7155813
20
8.9864948
40
2.4751317
50
280.6656187
51
339.5789257
0
ARC
8
0
10
52.7113304
20
9.0240259
40
2.5128025
50
269.9690414
51
280.6024869
0
ARC
8
0
10
52.7063668
20
8.9992284
40
2.4880074
50
249.650233
51
270.0830386
0
ARC
8
0
10
52.7047743
20
8.9860834
40
2.4751309
50
190.6656383
51
249.5789809
0
ARC
8
0
10
52.7422923
20
8.9903334
40
2.5127887
50
179.9690127
51
190.6025423
0
LINE
8
DEFAULT_255_2_778
10
50.229504
20
8.9916924
11
50.229504
21
8.9916924
0
LINE
8
DEFAULT_255_2_778
10
50.2294908
20
8.9917056
11
29.145507
21
15.1928773
0
LINE
8
DEFAULT_255_2_778
10
24.1845696
20
8.9917056
11
8.0615232
21
8.9917056
0
LINE
8
DEFAULT_255_2_778
10
55.1904282
20
8.9917056
11
71.3134746
21
8.9917056
0
ARC
8
0
10
26.6726004
20
-15.8093887
40
2.4880201
50
159.6502992
51
180.0830355
0
ARC
8
0
10
26.6594371
20
-15.8077905
40
2.4751246
50
100.6655505
51
159.5790236
0
ARC
8
0
10
26.6636935
20
-15.8453412
40
2.5128158
50
89.9690336
51
100.6024604
0
ARC
8
0
10
26.668658
20
-15.8205413
40
2.4880182
50
69.65028
51
90.0830526
0
ARC
8
0
10
26.6702556
20
-15.8073799
40
2.4751246
50
10.6655354
51
69.5790041
0
ARC
8
0
10
26.6327089
20
-15.8116365
40
2.5128117
50
359.9690373
51
10.6024688
0
ARC
8
0
10
26.6575027
20
-15.8166002
40
2.4880201
50
339.6502992
51
0.0830355
0
ARC
8
0
10
26.670666
20
-15.8181984
40
2.4751246
50
280.6655505
51
339.5790236
0
ARC
8
0
10
26.6664096
20
-15.7806477
40
2.5128158
50
269.9690336
51
280.6024604
0
ARC
8
0
10
26.6614451
20
-15.8054476
40
2.4880182
50
249.65028
51
270.0830526
0
ARC
8
0
10
26.6598475
20
-15.818609
40
2.4751246
50
190.6655354
51
249.5790041
0
ARC
8
0
10
26.6973942
20
-15.8143524
40
2.5128117
50
179.9690373
51
190.6024688
0
LINE
8
DEFAULT_255_2_778
10
24.1845829
20
-15.8129945
11
24.1845829
21
-15.8129945
0
ARC
8
0
10
52.7175097
20
-15.8093887
40
2.4880083
50
159.6501978
51
180.0830351
0
ARC
8
0
10
52.7043641
20
-15.8077969
40
2.4751317
50
100.6656187
51
159.5789257
0
ARC
8
0
10
52.708615
20
-15.845328
40
2.5128025
50
89.9690414
51
100.6024869
0
ARC
8
0
10
52.7135786
20
-15.8205305
40
2.4880074
50
69.650233
51
90.0830386
0
ARC
8
0
10
52.7151711
20
-15.8073855
40
2.4751309
50
10.6656383
51
69.5789809
0
ARC
8
0
10
52.6776531
20
-15.8116355
40
2.5127887
50
359.9690127
51
10.6025423
0
ARC
8
0
10
52.7024357
20
-15.8166002
40
2.4880083
50
339.6501978
51
0.0830351
0
ARC
8
0
10
52.7155813
20
-15.818192
40
2.4751317
50
280.6656187
51
339.5789257
0
ARC
8
0
10
52.7113304
20
-15.7806609
40
2.5128025
50
269.9690414
51
280.6024869
0
ARC
8
0
10
52.7063668
20
-15.8054584
40
2.4880074
50
249.650233
51
270.0830386
0
ARC
8
0
10
52.7047743
20
-15.8186034
40
2.4751309
50
190.6656383
51
249.5789809
0
ARC
8
0
10
52.7422923
20
-15.8143535
40
2.5127887
50
179.9690127
51
190.6025423
0
LINE
8
DEFAULT_255_2_778
10
50.229504
20
-15.8129945
11
50.229504
21
-15.8129945
0
LINE
8
DEFAULT_255_2_778
10
50.2294908
20
-15.8129812
11
29.145507
21
-9.6118095
0
LINE
8
DEFAULT_255_2_778
10
24.1845696
20
-15.8129812
11
8.0615232
21
-15.8129812
0
LINE
8
DEFAULT_255_2_778
10
55.1904282
20
-15.8129812
11
71.3134746
21
-15.8129812
0
LINE
8
DEFAULT_255_2_778
10
35.3466787
20
22.6342833
11
45.2685534
21
22.6342833
0
LINE
8
DEFAULT_255_2_778_064_085
10
40.3076293
20
21.3940424
11
40.3076293
21
-12.712402
0
LINE
8
DEFAULT_4_2_778
10
71.3134878
20
12.0922782
11
71.3134878
21
5.8911065
0
LINE
8
DEFAULT_4_2_778
10
71.313468
20
8.9916857
11
74.4140538
21
8.9916857
0
LINE
8
DEFAULT_4_2_778
10
71.313468
20
-12.7124152
11
71.313468
21
-18.9135869
0
LINE
8
DEFAULT_4_2_778
10
71.3134812
20
-15.8129945
11
74.414067
21
-15.8129945
0
LINE
8
DEFAULT_4_2_778
10
8.0615298
20
-12.7124086
11
8.0615298
21
-18.9135803
0
LINE
8
DEFAULT_4_2_778
10
4.960944
20
-15.8129878
11
8.0615298
21
-15.8129878
0
LINE
8
DEFAULT_4_2_778
10
8.0615298
20
12.0922848
11
8.0615298
21
5.8911131
0
LINE
8
DEFAULT_4_2_778
10
4.960944
20
8.9916924
11
8.0615298
21
8.9916924
0
ENDSEC
0
EOF