0
SECTION
2
HEADER
0
ENDSEC
0
SECTION
2
TABLES
0
TABLE
2
LTYPE
0
LTYPE
72
65
70
64
2
CONTINUOUS
3
______
73
0
40
0
0
ENDTAB
0
TABLE
2
LAYER
0
LAYER
2
DEFAULT_255_2_778
70
0
62
255
6
CONTINUOUS
0
LAYER
2
DEFAULT_4_2_778
70
0
62
4
6
CONTINUOUS
0
ENDTAB
0
ENDSEC
0
SECTION
2
ENTITIES
0
LINE
8
DEFAULT_255_2_778
10
8.0615232
20
4.9609374
11
29.145507
21
4.9609374
0
LINE
8
DEFAULT_255_2_778
10
71.3134746
20
4.9609374
11
50.2294908
21
4.9609374
0
LINE
8
DEFAULT_255_2_778
10
8.0615232
20
-19.8437494
11
29.145507
21
-19.8437494
0
LINE
8
DEFAULT_255_2_778
10
71.3134746
20
-19.8437494
11
50.2294908
21
-19.8437494
0
LINE
8
DEFAULT_255_2_778
10
29.145507
20
8.6816404
11
50.2294908
21
8.6816404
0
LINE
8
DEFAULT_255_2_778
10
50.2294908
20
8.6816404
11
50.2294908
21
1.2402343
0
LINE
8
DEFAULT_255_2_778
10
50.2294908
20
1.2402343
11
29.145507
21
1.2402343
0
LINE
8
DEFAULT_255_2_778
10
29.145507
20
1.2402343
11
29.145507
21
8.6816404
0
LINE
8
DEFAULT_255_2_778
10
32.86621
20
8.6816404
11
32.86621
21
1.2402343
0
LINE
8
DEFAULT_255_2_778
10
46.5087878
20
8.6816404
11
46.5087878
21
1.2402343
0
LINE
8
DEFAULT_255_2_778
10
29.145507
20
-16.1230464
11
50.2294908
21
-16.1230464
0
LINE
8
DEFAULT_255_2_778
10
50.2294908
20
-16.1230464
11
50.2294908
21
-23.5644525
0
LINE
8
DEFAULT_255_2_778
10
50.2294908
20
-23.5644525
11
29.145507
21
-23.5644525
0
LINE
8
DEFAULT_255_2_778
10
29.145507
20
-23.5644525
11
29.145507
21
-16.1230464
0
LINE
8
DEFAULT_255_2_778
10
32.86621
20
-16.1230464
11
32.86621
21
-23.5644525
0
LINE
8
DEFAULT_255_2_778
10
46.5087878
20
-16.1230464
11
46.5087878
21
-23.5644525
0
LINE
8
DEFAULT_4_2_778
10
71.3134878
20
8.0615232
11
71.3134878
21
1.8603515
0
LINE
8
DEFAULT_4_2_778
10
71.313468
20
4.9609307
11
74.4140538
21
4.9609307
0
LINE
8
DEFAULT_4_2_778
10
71.313468
20
-16.7431702
11
71.313468
21
-22.9443419
0
LINE
8
DEFAULT_4_2_778
10
71.3134812
20
-19.8437494
11
74.414067
21
-19.8437494
0
LINE
8
DEFAULT_4_2_778
10
8.0615298
20
-16.7431636
11
8.0615298
21
-22.9443353
0
LINE
8
DEFAULT_4_2_778
10
4.960944
20
-19.8437428
11
8.0615298
21
-19.8437428
0
LINE
8
DEFAULT_4_2_778
10
8.0615298
20
8.0615298
11
8.0615298
21
1.8603581
0
LINE
8
DEFAULT_4_2_778
10
4.960944
20
4.9609374
11
8.0615298
21
4.9609374
0
ENDSEC
0
EOF