0
SECTION
2
HEADER
0
ENDSEC
0
SECTION
2
TABLES
0
TABLE
2
LTYPE
0
LTYPE
72
65
70
64
2
CONTINUOUS
3
______
73
0
40
0
0
LTYPE
72
65
70
64
2
DASH_DEFAULT_255_2_778_064_085
3
______
73
2
40
2
49
-0.19921568073322585
49
0.2645833259738156
0
ENDTAB
0
TABLE
2
LAYER
0
LAYER
2
DEFAULT_255_2_778
70
0
62
255
6
CONTINUOUS
0
LAYER
2
DEFAULT_255_2_778_064_085
70
0
62
255
6
DASH_DEFAULT_255_2_778_064_085
0
LAYER
2
DEFAULT_4_2_778
70
0
62
4
6
CONTINUOUS
0
ENDTAB
0
ENDSEC
0
SECTION
2
ENTITIES
0
LINE
8
DEFAULT_255_2_778
10
36.5869263
20
24.4946348
11
44.0283323
21
24.4946348
0
LINE
8
DEFAULT_255_2_778_064_085
10
40.3076293
20
24.4946348
11
40.3076293
21
-7.751458
0
LINE
8
DEFAULT_255_2_778
10
48.989846
20
9.611739
11
45.8173976
21
11.2737015
0
LINE
8
DEFAULT_255_2_778
10
30.3858541
20
18.9130872
11
34.7983228
21
16.6245016
0
LINE
8
DEFAULT_255_2_778
10
35.7884236
20
18.8228583
11
46.9433384
21
13.621238
0
LINE
8
DEFAULT_255_2_778
10
46.9433384
20
13.621238
11
44.8273662
21
9.0835124
0
LINE
8
DEFAULT_255_2_778
10
44.8273662
20
9.0835124
11
33.6724494
21
14.2851327
0
LINE
8
DEFAULT_255_2_778
10
33.6724494
20
14.2851327
11
35.7884236
21
18.8228583
0
LINE
8
DEFAULT_255_2_778
10
38.0593858
20
17.8215574
11
35.9418189
21
13.2890761
0
LINE
8
DEFAULT_255_2_778
10
44.6735436
20
14.6167938
11
42.5559807
21
10.0843086
0
LINE
8
DEFAULT_255_2_778
10
8.0615232
20
9.6118228
11
25.424804
21
9.6118228
0
LINE
8
DEFAULT_255_2_778
10
71.3134746
20
9.6118228
11
53.9501938
21
9.6118228
0
LINE
8
DEFAULT_255_2_778
10
8.0615232
20
-15.1928641
11
25.424804
21
-15.1928641
0
LINE
8
DEFAULT_255_2_778
10
71.3134746
20
-15.1928641
11
53.9501938
21
-15.1928641
0
ARC
8
0
10
27.9128347
20
-15.1892583
40
2.4880201
50
159.6502992
51
180.0830355
0
ARC
8
0
10
27.8996715
20
-15.1876601
40
2.4751246
50
100.6655505
51
159.5790236
0
ARC
8
0
10
27.9039278
20
-15.2252108
40
2.5128158
50
89.9690336
51
100.6024604
0
ARC
8
0
10
27.9088924
20
-15.2004109
40
2.4880182
50
69.65028
51
90.0830526
0
ARC
8
0
10
27.9104899
20
-15.1872495
40
2.4751246
50
10.6655354
51
69.5790041
0
ARC
8
0
10
27.8729433
20
-15.1915061
40
2.5128117
50
359.9690373
51
10.6024688
0
ARC
8
0
10
27.8977371
20
-15.1964698
40
2.4880201
50
339.6502992
51
0.0830355
0
ARC
8
0
10
27.9109003
20
-15.198068
40
2.4751246
50
280.6655505
51
339.5790236
0
ARC
8
0
10
27.906644
20
-15.1605173
40
2.5128158
50
269.9690336
51
280.6024604
0
ARC
8
0
10
27.9016794
20
-15.1853172
40
2.4880182
50
249.65028
51
270.0830526
0
ARC
8
0
10
27.9000819
20
-15.1984786
40
2.4751246
50
190.6655354
51
249.5790041
0
ARC
8
0
10
27.9376285
20
-15.194222
40
2.5128117
50
179.9690373
51
190.6024688
0
LINE
8
DEFAULT_255_2_778
10
25.4248172
20
-15.1928641
11
25.4248172
21
-15.1928641
0
ARC
8
0
10
51.4772753
20
-15.1892583
40
2.4880083
50
159.6501978
51
180.0830351
0
ARC
8
0
10
51.4641298
20
-15.1876665
40
2.4751317
50
100.6656187
51
159.5789257
0
ARC
8
0
10
51.4683806
20
-15.2251976
40
2.5128025
50
89.9690414
51
100.6024869
0
ARC
8
0
10
51.4733442
20
-15.2004001
40
2.4880074
50
69.650233
51
90.0830386
0
ARC
8
0
10
51.4749368
20
-15.1872551
40
2.4751309
50
10.6656383
51
69.5789809
0
ARC
8
0
10
51.4374187
20
-15.1915051
40
2.5127887
50
359.9690127
51
10.6025423
0
ARC
8
0
10
51.4622014
20
-15.1964698
40
2.4880083
50
339.6501978
51
0.0830351
0
ARC
8
0
10
51.4753469
20
-15.1980616
40
2.4751317
50
280.6656187
51
339.5789257
0
ARC
8
0
10
51.4710961
20
-15.1605305
40
2.5128025
50
269.9690414
51
280.6024869
0
ARC
8
0
10
51.4661325
20
-15.185328
40
2.4880074
50
249.650233
51
270.0830386
0
ARC
8
0
10
51.4645399
20
-15.198473
40
2.4751309
50
190.6656383
51
249.5789809
0
ARC
8
0
10
51.502058
20
-15.1942231
40
2.5127887
50
179.9690127
51
190.6025423
0
LINE
8
DEFAULT_255_2_778
10
48.9892697
20
-15.1928641
11
48.9892697
21
-15.1928641
0
ARC
8
0
10
27.9128387
20
9.6154287
40
2.4880241
50
159.6503179
51
180.0830401
0
ARC
8
0
10
27.8996695
20
9.6170288
40
2.4751223
50
100.6655145
51
159.5790361
0
ARC
8
0
10
27.9039278
20
9.5794761
40
2.5128158
50
89.9690336
51
100.6024603
0
ARC
8
0
10
27.9088918
20
9.60427
40
2.4880241
50
69.6503179
51
90.0830401
0
ARC
8
0
10
27.910492
20
9.6174391
40
2.4751223
50
10.6655145
51
69.5790361
0
ARC
8
0
10
27.8729392
20
9.6131808
40
2.5128158
50
359.9690336
51
10.6024603
0
ARC
8
0
10
27.8977331
20
9.6082168
40
2.4880241
50
339.6503179
51
0.0830401
0
ARC
8
0
10
27.9109023
20
9.6066167
40
2.4751223
50
280.6655145
51
339.5790361
0
ARC
8
0
10
27.906644
20
9.6441694
40
2.5128158
50
269.9690336
51
280.6024603
0
ARC
8
0
10
27.9016799
20
9.6193756
40
2.4880241
50
249.6503179
51
270.0830401
0
ARC
8
0
10
27.9000798
20
9.6062064
40
2.4751223
50
190.6655145
51
249.5790361
0
ARC
8
0
10
27.9376326
20
9.6104647
40
2.5128158
50
179.9690336
51
190.6024603
0
LINE
8
DEFAULT_255_2_778
10
25.4248172
20
9.6118228
11
25.4248172
21
9.6118228
0
ARC
8
0
10
51.4772793
20
9.6154287
40
2.4880122
50
159.6502166
51
180.0830397
0
ARC
8
0
10
51.4641278
20
9.6170224
40
2.4751294
50
100.6655826
51
159.5789382
0
ARC
8
0
10
51.4683806
20
9.5794893
40
2.5128026
50
89.9690413
51
100.6024868
0
ARC
8
0
10
51.4733437
20
9.6042807
40
2.4880133
50
69.6502709
51
90.0830261
0
ARC
8
0
10
51.4749389
20
9.6174336
40
2.4751286
50
10.6656174
51
69.5790129
0
ARC
8
0
10
51.4374147
20
9.6131819
40
2.5127928
50
359.9690089
51
10.6025339
0
ARC
8
0
10
51.4621974
20
9.6082168
40
2.4880122
50
339.6502166
51
0.0830397
0
ARC
8
0
10
51.4753489
20
9.6066231
40
2.4751294
50
280.6655826
51
339.5789382
0
ARC
8
0
10
51.4710961
20
9.6441562
40
2.5128026
50
269.9690413
51
280.6024868
0
ARC
8
0
10
51.466133
20
9.6193648
40
2.4880133
50
249.6502709
51
270.0830261
0
ARC
8
0
10
51.4645379
20
9.6062119
40
2.4751286
50
190.6656174
51
249.5790129
0
ARC
8
0
10
51.502062
20
9.6104636
40
2.5127928
50
179.9690089
51
190.6025339
0
LINE
8
DEFAULT_255_2_778
10
48.9892697
20
9.6118228
11
48.9892697
21
9.6118228
0
LINE
8
DEFAULT_4_2_778
10
71.3134878
20
12.7124086
11
71.3134878
21
6.5112369
0
LINE
8
DEFAULT_4_2_778
10
71.313468
20
9.6118161
11
74.4140538
21
9.6118161
0
LINE
8
DEFAULT_4_2_778
10
71.313468
20
-12.0922848
11
71.313468
21
-18.2934565
0
LINE
8
DEFAULT_4_2_778
10
71.3134812
20
-15.1928641
11
74.414067
21
-15.1928641
0
LINE
8
DEFAULT_4_2_778
10
8.0615298
20
-12.0922782
11
8.0615298
21
-18.2934499
0
LINE
8
DEFAULT_4_2_778
10
4.960944
20
-15.1928839
11
8.0615298
21
-15.1928839
0
LINE
8
DEFAULT_4_2_778
10
8.0615298
20
12.7123888
11
8.0615298
21
6.5112171
0
LINE
8
DEFAULT_4_2_778
10
4.960944
20
9.6118228
11
8.0615298
21
9.6118228
0
LINE
8
DEFAULT_255_2_778
10
48.989846
20
-15.1929478
11
45.8173976
21
-13.5309853
0
LINE
8
DEFAULT_255_2_778
10
30.3858541
20
-5.8915986
11
34.7983228
21
-8.1801862
0
LINE
8
DEFAULT_255_2_778
10
35.7884236
20
-5.9818295
11
46.9433384
21
-11.1834458
0
LINE
8
DEFAULT_255_2_778
10
46.9433384
20
-11.1834458
11
44.8273662
21
-15.7211734
0
LINE
8
DEFAULT_255_2_778
10
44.8273662
20
-15.7211734
11
33.6724494
21
-10.519549
0
LINE
8
DEFAULT_255_2_778
10
33.6724494
20
-10.519549
11
35.7884236
21
-5.9818295
0
LINE
8
DEFAULT_255_2_778
10
38.0593858
20
-6.9831305
11
35.9418189
21
-11.5156097
0
LINE
8
DEFAULT_255_2_778
10
44.6735436
20
-10.187896
11
42.5559807
21
-14.7203752
0
ENDSEC
0
EOF