0
SECTION
2
HEADER
0
ENDSEC
0
SECTION
2
TABLES
0
TABLE
2
LTYPE
0
LTYPE
72
65
70
64
2
CONTINUOUS
3
______
73
0
40
0
0
LTYPE
72
65
70
64
2
DASH_DEFAULT_255_2_778_064_085
3
______
73
2
40
2
49
-0.19921568073322585
49
0.2645833259738156
0
ENDTAB
0
TABLE
2
LAYER
0
LAYER
2
DEFAULT_255_2_778
70
0
62
255
6
CONTINUOUS
0
LAYER
2
DEFAULT_255_2_778_064_085
70
0
62
255
6
DASH_DEFAULT_255_2_778_064_085
0
LAYER
2
DEFAULT_4_2_778
70
0
62
4
6
CONTINUOUS
0
ENDTAB
0
ENDSEC
0
SECTION
2
ENTITIES
0
LINE
8
DEFAULT_255_2_778
10
22.9443485
20
0
11
32.8662233
21
0
0
LINE
8
DEFAULT_255_2_778
10
32.8662233
20
0
11
32.8662233
21
-9.9218747
0
LINE
8
DEFAULT_255_2_778
10
32.8662233
20
-9.9218747
11
22.9443485
21
-9.9218747
0
LINE
8
DEFAULT_255_2_778
10
22.9443485
20
-9.9218747
11
22.9443485
21
0
0
LINE
8
DEFAULT_255_2_778
10
22.9443485
20
-4.9609374
11
32.8662233
21
-4.9609374
0
LINE
8
DEFAULT_255_2_778
10
27.9052859
20
0
11
27.9052859
21
-9.9218747
0
LINE
8
DEFAULT_255_2_778
10
20.4638798
20
-13.6425777
11
35.3466919
21
-18.6035151
0
LINE
8
DEFAULT_255_2_778
10
35.3466919
20
-18.6035151
11
40.3076293
21
-18.6035151
0
LINE
8
DEFAULT_255_2_778
10
40.3076161
20
-24.8046868
11
40.3076161
21
-9.9218747
0
LINE
8
DEFAULT_255_2_778
10
40.3076161
20
-9.9218747
11
48.9892564
21
-9.9218747
0
LINE
8
DEFAULT_255_2_778
10
48.9892564
20
-9.9218747
11
48.9892564
21
-24.8046868
0
LINE
8
DEFAULT_255_2_778
10
48.9892564
20
-24.8046868
11
40.3076161
21
-24.8046868
0
LINE
8
DEFAULT_255_2_778_064_085
10
27.9052859
20
-9.921888
11
27.9052859
21
-16.1230597
0
LINE
8
DEFAULT_255_2_778_064_085
10
27.9052859
20
4.9609241
11
27.9052859
21
-0.0000132
0
LINE
8
DEFAULT_255_2_778
10
8.0615232
20
-18.6035283
11
20.4638666
21
-18.6035283
0
LINE
8
DEFAULT_255_2_778
10
24.1845696
20
4.9609241
11
31.6259757
21
4.9609241
0
LINE
8
DEFAULT_255_2_778_064_085
10
32.8662233
20
-4.9609374
11
45.2685667
21
-4.9609374
0
LINE
8
DEFAULT_255_2_778_064_085
10
45.2685667
20
-4.9609374
11
45.2685667
21
-9.9218747
0
LINE
8
DEFAULT_4_2_778
10
8.0615364
20
-15.5029293
11
8.0615364
21
-21.704101
0
LINE
8
DEFAULT_4_2_778
10
4.960944
20
-18.6035151
11
8.0615298
21
-18.6035151
0
LINE
8
DEFAULT_255_2_778
10
48.9892564
20
-24.8046868
11
48.9892564
21
-9.9218747
0
LINE
8
DEFAULT_255_2_778
10
48.9892564
20
-9.9218747
11
57.6708968
21
-9.9218747
0
LINE
8
DEFAULT_255_2_778
10
57.6708968
20
-9.9218747
11
57.6708968
21
-24.8046868
0
LINE
8
DEFAULT_255_2_778
10
57.6708968
20
-24.8046868
11
48.9892564
21
-24.8046868
0
LINE
8
DEFAULT_255_2_778
10
51.4697384
20
-19.0165131
11
51.4697384
21
-20.3931733
0
LINE
8
DEFAULT_255_2_778
10
51.4697251
20
-19.7073221
11
55.1904282
21
-20.3968956
0
LINE
8
DEFAULT_255_2_778
10
55.1904282
20
-19.7197392
11
55.1904282
21
-21.083997
0
LINE
8
DEFAULT_255_2_778
10
51.4697251
20
-17.6386244
11
53.3300766
21
-14.8828253
0
LINE
8
DEFAULT_255_2_778
10
53.3300766
20
-14.8828253
11
55.1904282
21
-17.6386244
0
LINE
8
DEFAULT_255_2_778
10
40.3076161
20
-18.6035283
11
42.7880847
21
-18.6035283
0
LINE
8
DEFAULT_255_2_778
10
42.7880847
20
-18.6035283
11
42.7880847
21
-14.8828253
0
LINE
8
DEFAULT_255_2_778
10
42.7880847
20
-14.8828253
11
46.5087878
21
-14.8828253
0
LINE
8
DEFAULT_255_2_778
10
46.5087878
20
-14.8828253
11
46.5087878
21
-18.6035283
0
LINE
8
DEFAULT_255_2_778
10
46.5087878
20
-18.6035283
11
48.9892564
21
-18.6035283
0
LINE
8
DEFAULT_255_2_778
10
57.6708968
20
-18.6035283
11
71.3134746
21
-18.6035283
0
LINE
8
DEFAULT_4_2_778
10
71.3134878
20
-15.5029293
11
71.3134878
21
-21.704101
0
LINE
8
DEFAULT_4_2_778
10
71.313468
20
-18.6035151
11
74.4140538
21
-18.6035151
0
LINE
8
DEFAULT_255_2_778_064_085
10
45.888664
20
-4.9609374
11
52.7099529
21
-4.9609374
0
LINE
8
DEFAULT_255_2_778_064_085
10
52.7099529
20
-4.9609374
11
52.7099529
21
-9.9218747
0
ENDSEC
0
EOF