0
SECTION
2
HEADER
0
ENDSEC
0
SECTION
2
TABLES
0
TABLE
2
LTYPE
0
LTYPE
72
65
70
64
2
CONTINUOUS
3
______
73
0
40
0
0
ENDTAB
0
TABLE
2
LAYER
0
LAYER
2
DEFAULT_255_2_778
70
0
62
255
6
CONTINUOUS
0
LAYER
2
DEFAULT_4_2_778
70
0
62
4
6
CONTINUOUS
0
ENDTAB
0
ENDSEC
0
SECTION
2
ENTITIES
0
LINE
8
DEFAULT_255_2_778
10
8.0615232
20
-32.2460929
11
29.145507
21
-32.2460929
0
LINE
8
DEFAULT_255_2_778
10
71.3134746
20
-32.2460929
11
50.2294908
21
-32.2460929
0
LINE
8
DEFAULT_255_2_778
10
29.145507
20
-28.5253898
11
50.2294908
21
-28.5253898
0
LINE
8
DEFAULT_255_2_778
10
50.2294908
20
-28.5253898
11
50.2294908
21
-35.9667959
0
LINE
8
DEFAULT_255_2_778
10
50.2294908
20
-35.9667959
11
29.145507
21
-35.9667959
0
LINE
8
DEFAULT_255_2_778
10
29.145507
20
-35.9667959
11
29.145507
21
-28.5253898
0
LINE
8
DEFAULT_255_2_778
10
32.86621
20
-28.5253898
11
32.86621
21
-35.9667959
0
LINE
8
DEFAULT_255_2_778
10
46.5087878
20
-28.5253898
11
46.5087878
21
-35.9667959
0
LINE
8
DEFAULT_4_2_778
10
71.3134878
20
-29.145507
11
71.3134878
21
-35.3466787
0
LINE
8
DEFAULT_4_2_778
10
71.3134812
20
-32.2460929
11
74.414067
21
-32.2460929
0
LINE
8
DEFAULT_4_2_778
10
8.0615298
20
-29.145507
11
8.0615298
21
-35.3466787
0
LINE
8
DEFAULT_4_2_778
10
4.960944
20
-32.2460929
11
8.0615298
21
-32.2460929
0
ENDSEC
0
EOF