0
SECTION
2
HEADER
0
ENDSEC
0
SECTION
2
TABLES
0
TABLE
2
LTYPE
0
LTYPE
72
65
70
64
2
CONTINUOUS
3
______
73
0
40
0
0
ENDTAB
0
TABLE
2
LAYER
0
LAYER
2
DEFAULT_255_2_778
70
0
62
255
6
CONTINUOUS
0
LAYER
2
DEFAULT_4_2_778
70
0
62
4
6
CONTINUOUS
0
ENDTAB
0
ENDSEC
0
SECTION
2
ENTITIES
0
LINE
8
DEFAULT_255_2_778
10
26.6650383
20
-22.3242314
11
30.3857413
21
-22.3242314
0
LINE
8
DEFAULT_255_2_778
10
30.3857413
20
-22.3242314
11
30.3857413
21
-16.1230597
0
LINE
8
DEFAULT_255_2_778
10
30.3857413
20
-16.1230597
11
36.586913
21
-16.1230597
0
LINE
8
DEFAULT_255_2_778
10
36.586913
20
-16.1230597
11
36.586913
21
-22.3242314
0
LINE
8
DEFAULT_255_2_778
10
36.586913
20
-22.3242314
11
40.3076161
21
-22.3242314
0
LINE
8
DEFAULT_255_2_778
10
26.6650383
20
-29.7656242
11
26.6650383
21
-9.9218747
0
LINE
8
DEFAULT_255_2_778
10
26.6650383
20
-9.9218747
11
40.3076161
21
-9.9218747
0
LINE
8
DEFAULT_255_2_778
10
40.3076161
20
-9.9218747
11
40.3076161
21
-29.7656242
0
LINE
8
DEFAULT_255_2_778
10
40.3076161
20
-29.7656242
11
26.6650383
21
-29.7656242
0
LINE
8
DEFAULT_255_2_778
10
40.3076161
20
-29.7656242
11
40.3076161
21
-9.9218747
0
LINE
8
DEFAULT_255_2_778
10
40.3076161
20
-9.9218747
11
53.9501938
21
-9.9218747
0
LINE
8
DEFAULT_255_2_778
10
53.9501938
20
-9.9218747
11
53.9501938
21
-29.7656242
0
LINE
8
DEFAULT_255_2_778
10
53.9501938
20
-29.7656242
11
40.3076161
21
-29.7656242
0
LINE
8
DEFAULT_255_2_778
10
44.0283323
20
-22.4606505
11
44.0283323
21
-24.2961973
0
LINE
8
DEFAULT_255_2_778
10
44.0283191
20
-23.3808932
11
50.2294908
21
-24.2986626
0
LINE
8
DEFAULT_255_2_778
10
50.2294908
20
-23.3809134
11
50.2294908
21
-25.2164562
0
LINE
8
DEFAULT_255_2_778
10
44.0283191
20
-20.6251062
11
47.1289049
21
-16.9502943
0
LINE
8
DEFAULT_255_2_778
10
47.1289049
20
-16.9502943
11
50.2294908
21
-20.6251062
0
LINE
8
DEFAULT_255_2_778
10
8.0615232
20
-22.3242313
11
26.6650383
21
-22.3242313
0
LINE
8
DEFAULT_255_2_778
10
53.9501938
20
-22.3242313
11
71.3134746
21
-22.3242313
0
LINE
8
DEFAULT_4_2_778
10
71.3134878
20
-19.2236323
11
71.3134878
21
-25.424804
0
LINE
8
DEFAULT_4_2_778
10
71.3134812
20
-22.3242181
11
74.414067
21
-22.3242181
0
LINE
8
DEFAULT_4_2_778
10
8.0615298
20
-19.2236323
11
8.0615298
21
-25.424804
0
LINE
8
DEFAULT_4_2_778
10
4.960944
20
-22.3242181
11
8.0615298
21
-22.3242181
0
ENDSEC
0
EOF