0
SECTION
2
HEADER
0
ENDSEC
0
SECTION
2
TABLES
0
TABLE
2
LTYPE
0
LTYPE
72
65
70
64
2
CONTINUOUS
3
______
73
0
40
0
0
ENDTAB
0
TABLE
2
LAYER
0
LAYER
2
DEFAULT_255_2_778
70
0
62
255
6
CONTINUOUS
0
LAYER
2
DEFAULT_4_2_778
70
0
62
4
6
CONTINUOUS
0
ENDTAB
0
ENDSEC
0
SECTION
2
ENTITIES
0
LINE
8
DEFAULT_255_2_778
10
8.0615232
20
-21.0839838
11
34.1064444
21
-21.0839838
0
LINE
8
DEFAULT_255_2_778
10
71.3134746
20
-21.0839838
11
46.5087878
21
-21.0839838
0
LINE
8
DEFAULT_255_2_778
10
34.1064576
20
-14.8828121
11
46.508801
21
-14.8828121
0
LINE
8
DEFAULT_255_2_778
10
46.508801
20
-14.8828121
11
46.508801
21
-27.2851555
0
LINE
8
DEFAULT_255_2_778
10
46.508801
20
-27.2851555
11
34.1064576
21
-27.2851555
0
LINE
8
DEFAULT_255_2_778
10
34.1064576
20
-27.2851555
11
34.1064576
21
-14.8828121
0
ARC
8
0
10
40.3783435
20
-8.6775698
40
6.2718873
50
168.1623932
51
180.0371863
0
ARC
8
0
10
40.2704288
20
-8.6570415
40
6.1620568
50
151.8357214
51
168.1433717
0
ARC
8
0
10
40.2978945
20
-8.6726488
40
6.1936373
50
109.882945
51
151.828362
0
ARC
8
0
10
40.2901666
20
-8.6690078
40
6.1875878
50
96.2170476
51
109.8271179
0
ARC
8
0
10
40.3062851
20
-8.8040643
40
6.3235959
50
89.9878209
51
96.2297124
0
ARC
8
0
10
40.3116988
20
-8.7523693
40
6.2719019
50
78.1624161
51
90.0371759
0
ARC
8
0
10
40.3322282
20
-8.6444395
40
6.1620564
50
61.8357285
51
78.1433762
0
ARC
8
0
10
40.3166213
20
-8.6719053
40
6.1936368
50
19.8829518
51
61.8283736
0
ARC
8
0
10
40.3202716
20
-8.6641752
40
6.1875779
50
6.2170381
51
19.8271349
0
ARC
8
0
10
40.1851983
20
-8.6802962
40
6.3236028
50
359.9878208
51
6.2297087
0
ARC
8
0
10
40.236915
20
-8.685711
40
6.2718873
50
348.1623932
51
0.0371863
0
ARC
8
0
10
40.3448298
20
-8.7062393
40
6.1620568
50
331.8357214
51
348.1433717
0
ARC
8
0
10
40.3173641
20
-8.6906319
40
6.1936373
50
289.882945
51
331.828362
0
ARC
8
0
10
40.325092
20
-8.694273
40
6.1875878
50
276.2170476
51
289.8271179
0
ARC
8
0
10
40.3089735
20
-8.5592164
40
6.3235959
50
269.9878209
51
276.2297124
0
ARC
8
0
10
40.3035598
20
-8.6109115
40
6.2719019
50
258.1624161
51
270.0371759
0
ARC
8
0
10
40.2830304
20
-8.7188413
40
6.1620564
50
241.8357285
51
258.1433762
0
ARC
8
0
10
40.2986373
20
-8.6913754
40
6.1936368
50
199.8829518
51
241.8283736
0
ARC
8
0
10
40.294987
20
-8.6991056
40
6.1875779
50
186.2170381
51
199.8271349
0
ARC
8
0
10
40.4300602
20
-8.6829846
40
6.3236028
50
179.9878208
51
186.2297087
0
LINE
8
DEFAULT_255_2_778
10
34.1064576
20
-8.6816404
11
34.1064576
21
-8.6816404
0
LINE
8
DEFAULT_4_2_778
10
71.3134878
20
-17.9833979
11
71.3134878
21
-24.1845696
0
LINE
8
DEFAULT_4_2_778
10
71.3134812
20
-21.0839838
11
74.414067
21
-21.0839838
0
LINE
8
DEFAULT_4_2_778
10
8.0615298
20
-17.9833979
11
8.0615298
21
-24.1845696
0
LINE
8
DEFAULT_4_2_778
10
4.960944
20
-21.0839838
11
8.0615298
21
-21.0839838
0
ENDSEC
0
EOF