0
SECTION
2
HEADER
0
ENDSEC
0
SECTION
2
TABLES
0
TABLE
2
LTYPE
0
LTYPE
72
65
70
64
2
CONTINUOUS
3
______
73
0
40
0
0
ENDTAB
0
TABLE
2
LAYER
0
LAYER
2
DEFAULT_255_2_778
70
0
62
255
6
CONTINUOUS
0
LAYER
2
DEFAULT_4_2_778
70
0
62
4
6
CONTINUOUS
0
ENDTAB
0
ENDSEC
0
SECTION
2
ENTITIES
0
ARC
8
0
10
40.5183568
20
-14.8787022
40
12.6130716
50
172.0937678
51
180.0186697
0
ARC
8
0
10
40.2818442
20
-14.8467891
40
12.3744175
50
162.334564
51
172.0894933
0
ARC
8
0
10
40.2335015
20
-14.8334929
40
12.3243198
50
149.3725327
51
162.3252623
0
ARC
8
0
10
40.2934974
20
-14.8695696
40
12.3943255
50
114.62823
51
149.3703197
0
ARC
8
0
10
40.2577694
20
-14.8070647
40
12.3226194
50
103.3527257
51
114.5983313
0
ARC
8
0
10
40.2860414
20
-14.9330346
40
12.4517134
50
94.380263
51
103.3454352
0
ARC
8
0
10
40.3062228
20
-15.1688585
40
12.68839
50
89.9936487
51
94.3897964
0
ARC
8
0
10
40.3117392
20
-15.0935214
40
12.6130534
50
82.0937622
51
90.0186696
0
ARC
8
0
10
40.3436504
20
-14.8570215
40
12.3744121
50
72.3345581
51
82.0894873
0
ARC
8
0
10
40.3569466
20
-14.8086809
40
12.3243165
50
59.3725282
51
72.3252596
0
ARC
8
0
10
40.3208661
20
-14.8686862
40
12.3943322
50
24.6282461
51
59.3703218
0
ARC
8
0
10
40.3833938
20
-14.8329491
40
12.3226016
50
13.3527305
51
24.5983534
0
ARC
8
0
10
40.2574068
20
-14.8612268
40
12.4517137
50
4.3802746
51
13.3454468
0
ARC
8
0
10
40.0215829
20
-14.8814056
40
12.68839
50
359.9936487
51
4.3897964
0
ARC
8
0
10
40.0969497
20
-14.8869235
40
12.6130237
50
352.0937462
51
0.0186762
0
ARC
8
0
10
40.3334181
20
-14.9188325
40
12.374414
50
342.33455
51
352.0894811
0
ARC
8
0
10
40.3817686
20
-14.9321316
40
12.324308
50
329.3725072
51
342.3252502
0
ARC
8
0
10
40.3217517
20
-14.8960448
40
12.394337
50
294.6282406
51
329.3703036
0
ARC
8
0
10
40.3574859
20
-14.9585664
40
12.322613
50
283.3527394
51
294.5983483
0
ARC
8
0
10
40.3292169
20
-14.8326044
40
12.4516985
50
274.3802658
51
283.3454436
0
ARC
8
0
10
40.3090358
20
-14.5967864
40
12.6883693
50
269.9936487
51
274.3898001
0
ARC
8
0
10
40.3035194
20
-14.6720846
40
12.6130716
50
262.0937678
51
270.0186697
0
ARC
8
0
10
40.2716064
20
-14.9085969
40
12.3744177
50
252.334564
51
262.0894933
0
ARC
8
0
10
40.2583121
20
-14.9569392
40
12.3243208
50
239.3725255
51
252.3252545
0
ARC
8
0
10
40.29439
20
-14.896941
40
12.3943293
50
204.6282325
51
239.3703128
0
ARC
8
0
10
40.2318788
20
-14.9326716
40
12.3226164
50
193.3527279
51
204.5983354
0
ARC
8
0
10
40.3578468
20
-14.9043999
40
12.4517084
50
184.380264
51
193.345438
0
ARC
8
0
10
40.593667
20
-14.8842186
40
12.6883813
50
179.9936487
51
184.3897982
0
LINE
8
DEFAULT_255_2_778
10
27.9052859
20
-14.8828121
11
27.9052859
21
-14.8828121
0
LINE
8
DEFAULT_255_2_778
10
8.0615232
20
-14.8828121
11
27.9052727
21
-14.8828121
0
LINE
8
DEFAULT_255_2_778
10
71.3134746
20
-14.8828121
11
52.7099595
21
-14.8828121
0
LINE
8
DEFAULT_4_2_778
10
71.3134878
20
-11.7822262
11
71.3134878
21
-17.9833979
0
LINE
8
DEFAULT_4_2_778
10
71.3134812
20
-14.8828121
11
74.414067
21
-14.8828121
0
LINE
8
DEFAULT_4_2_778
10
8.0615298
20
-11.7822262
11
8.0615298
21
-17.9833979
0
LINE
8
DEFAULT_4_2_778
10
4.960944
20
-14.8828121
11
8.0615298
21
-14.8828121
0
ENDSEC
0
EOF