0
SECTION
2
HEADER
0
ENDSEC
0
SECTION
2
TABLES
0
TABLE
2
LTYPE
0
LTYPE
72
65
70
64
2
CONTINUOUS
3
______
73
0
40
0
0
LTYPE
72
65
70
64
2
DASH_DEFAULT_255_2_778_064_085
3
______
73
2
40
2
49
-0.19921568073322585
49
0.2645833259738156
0
ENDTAB
0
TABLE
2
LAYER
0
LAYER
2
DEFAULT_255_2_778
70
0
62
255
6
CONTINUOUS
0
LAYER
2
DEFAULT_255_2_778_064_085
70
0
62
255
6
DASH_DEFAULT_255_2_778_064_085
0
LAYER
2
DEFAULT_4_2_778
70
0
62
4
6
CONTINUOUS
0
ENDTAB
0
ENDSEC
0
SECTION
2
ENTITIES
0
LINE
8
DEFAULT_255_2_778
10
52.7099727
20
40.92772
11
42.788098
21
16.1230332
0
LINE
8
DEFAULT_255_2_778
10
42.788098
20
16.1230332
11
42.788098
21
-2.4804819
0
LINE
8
DEFAULT_255_2_778
10
42.788098
20
59.5312483
11
42.788098
21
37.2070302
0
LINE
8
DEFAULT_255_2_778
10
42.788098
20
37.2070302
11
55.1904414
21
37.2070302
0
LINE
8
DEFAULT_255_2_778_064_085
10
47.1288983
20
28.5253898
11
29.1455004
21
28.5253898
0
ARC
8
0
10
27.2927043
20
32.2496986
40
2.4880201
50
159.6502992
51
180.0830355
0
ARC
8
0
10
27.2795411
20
32.2512968
40
2.4751246
50
100.6655505
51
159.5790236
0
ARC
8
0
10
27.2837974
20
32.2137461
40
2.5128158
50
89.9690336
51
100.6024604
0
ARC
8
0
10
27.288762
20
32.238546
40
2.4880182
50
69.65028
51
90.0830526
0
ARC
8
0
10
27.2903595
20
32.2517074
40
2.4751246
50
10.6655354
51
69.5790041
0
ARC
8
0
10
27.2528129
20
32.2474508
40
2.5128117
50
359.9690373
51
10.6024688
0
ARC
8
0
10
27.2776067
20
32.2424871
40
2.4880201
50
339.6502992
51
0.0830355
0
ARC
8
0
10
27.2907699
20
32.2408889
40
2.4751246
50
280.6655505
51
339.5790236
0
ARC
8
0
10
27.2865136
20
32.2784396
40
2.5128158
50
269.9690336
51
280.6024604
0
ARC
8
0
10
27.281549
20
32.2536397
40
2.4880182
50
249.65028
51
270.0830526
0
ARC
8
0
10
27.2799515
20
32.2404783
40
2.4751246
50
190.6655354
51
249.5790041
0
ARC
8
0
10
27.3174981
20
32.2447349
40
2.5128117
50
179.9690373
51
190.6024688
0
LINE
8
DEFAULT_255_2_778
10
24.8046868
20
32.2460929
11
24.8046868
21
32.2460929
0
LINE
8
DEFAULT_255_2_778
10
26.0449212
20
29.7656242
11
24.1845696
21
24.8046868
0
LINE
8
DEFAULT_255_2_778
10
24.1845696
20
24.8046868
11
24.1845696
21
22.3242181
0
LINE
8
DEFAULT_255_2_778
10
24.1845696
20
22.3242181
11
30.3857413
21
22.3242181
0
LINE
8
DEFAULT_255_2_778
10
30.3857413
20
22.3242181
11
30.3857413
21
24.8046868
0
LINE
8
DEFAULT_255_2_778
10
30.3857413
20
24.8046868
11
28.5253898
21
29.7656242
0
LINE
8
DEFAULT_4_2_778
10
39.6875121
20
59.5312483
11
45.8886838
21
59.5312483
0
LINE
8
DEFAULT_4_2_778
10
42.788098
20
62.6318408
11
42.788098
21
59.531255
0
LINE
8
DEFAULT_4_2_778
10
39.6875121
20
-2.4804621
11
45.8886838
21
-2.4804621
0
LINE
8
DEFAULT_4_2_778
10
42.788098
20
-2.4804753
11
42.788098
21
-5.5810611
0
ENDSEC
0
EOF