0
SECTION
2
HEADER
0
ENDSEC
0
SECTION
2
TABLES
0
TABLE
2
LTYPE
0
LTYPE
72
65
70
64
2
CONTINUOUS
3
______
73
0
40
0
0
LTYPE
72
65
70
64
2
DASH_DEFAULT_255_2_778_064_085
3
______
73
2
40
2
49
-0.19921568073322585
49
0.2645833259738156
0
ENDTAB
0
TABLE
2
LAYER
0
LAYER
2
DEFAULT_255_2_778
70
0
62
255
6
CONTINUOUS
0
LAYER
2
DEFAULT_255_2_778_064_085
70
0
62
255
6
DASH_DEFAULT_255_2_778_064_085
0
LAYER
2
DEFAULT_4_2_778
70
0
62
4
6
CONTINUOUS
0
ENDTAB
0
ENDSEC
0
SECTION
2
ENTITIES
0
LINE
8
DEFAULT_255_2_778
10
62.011717
20
40.92772
11
52.0898423
21
16.1230332
0
LINE
8
DEFAULT_255_2_778
10
52.0898423
20
16.1230332
11
52.0898423
21
-2.4804819
0
ARC
8
0
10
21.0803857
20
28.5489028
40
6.2246857
50
257.7633502
51
270.033119
0
ARC
8
0
10
21.0694239
20
28.4851924
40
6.1601001
50
240.6030427
51
257.7373942
0
ARC
8
0
10
21.0989772
20
28.5392214
40
6.2216788
50
200.0267913
51
240.6101567
0
ARC
8
0
10
21.0489883
20
28.5123379
40
6.1655116
50
185.8036151
51
199.9511586
0
ARC
8
0
10
21.1565739
20
28.524364
40
6.2737618
50
179.9906317
51
185.8135285
0
ARC
8
0
10
21.1074967
20
28.5289879
40
6.2246857
50
167.7633502
51
180.033119
0
ARC
8
0
10
21.0437864
20
28.5399497
40
6.1601001
50
150.6030427
51
167.7373942
0
ARC
8
0
10
21.0978154
20
28.5103964
40
6.2216788
50
110.0267913
51
150.6101567
0
ARC
8
0
10
21.0709319
20
28.5603853
40
6.1655116
50
95.8036151
51
109.9511586
0
ARC
8
0
10
21.082958
20
28.4527997
40
6.2737618
50
89.9906317
51
95.8135285
0
LINE
8
DEFAULT_255_2_778
10
52.0898423
20
59.5312483
11
52.0898423
21
37.2070302
0
LINE
8
DEFAULT_255_2_778
10
52.0898423
20
37.2070302
11
64.4921857
21
37.2070302
0
LINE
8
DEFAULT_255_2_778
10
21.0839838
20
34.7265615
11
21.0839838
21
22.3242181
0
LINE
8
DEFAULT_255_2_778
10
31.0058585
20
34.7265615
11
27.2851555
21
34.7265615
0
LINE
8
DEFAULT_255_2_778
10
27.2851555
20
34.7265615
11
27.2851555
21
22.3242181
0
LINE
8
DEFAULT_255_2_778
10
27.2851555
20
22.3242181
11
23.5644525
21
22.3242181
0
LINE
8
DEFAULT_255_2_778_064_085
10
56.740731
20
28.5253898
11
39.6875088
21
28.5253898
0
LINE
8
DEFAULT_255_2_778
10
39.6875121
20
28.5253766
11
36.5869263
21
22.3242049
0
LINE
8
DEFAULT_255_2_778
10
36.5869263
20
22.3242049
11
33.4863404
21
28.5253766
0
LINE
8
DEFAULT_255_2_778_064_085
10
33.4863272
20
28.5253898
11
21.0839838
21
28.5253898
0
LINE
8
DEFAULT_4_2_778
10
48.9892564
20
59.5312483
11
55.1904282
21
59.5312483
0
LINE
8
DEFAULT_4_2_778
10
52.0898423
20
62.6318408
11
52.0898423
21
59.531255
0
LINE
8
DEFAULT_4_2_778
10
48.9892564
20
-2.4804621
11
55.1904282
21
-2.4804621
0
LINE
8
DEFAULT_4_2_778
10
52.0898423
20
-2.4804753
11
52.0898423
21
-5.5810611
0
ENDSEC
0
EOF