0
SECTION
2
HEADER
0
ENDSEC
0
SECTION
2
TABLES
0
TABLE
2
LTYPE
0
LTYPE
72
65
70
64
2
CONTINUOUS
3
______
73
0
40
0
0
LTYPE
72
65
70
64
2
DASH_DEFAULT_255_2_778_064_085
3
______
73
2
40
2
49
-0.19921568073322585
49
0.2645833259738156
0
ENDTAB
0
TABLE
2
LAYER
0
LAYER
2
DEFAULT_255_2_778
70
0
62
255
6
CONTINUOUS
0
LAYER
2
DEFAULT_255_2_778_064_085
70
0
62
255
6
DASH_DEFAULT_255_2_778_064_085
0
LAYER
2
DEFAULT_4_2_778
70
0
62
4
6
CONTINUOUS
0
ENDTAB
0
ENDSEC
0
SECTION
2
ENTITIES
0
LINE
8
DEFAULT_255_2_778
10
62.011717
20
40.92772
11
52.0898423
21
16.1230332
0
LINE
8
DEFAULT_255_2_778
10
52.0898423
20
16.1230332
11
52.0898423
21
-2.4804819
0
ARC
8
0
10
21.0803857
20
28.5489028
40
6.2246857
50
257.7633502
51
270.033119
0
ARC
8
0
10
21.0694239
20
28.4851924
40
6.1601001
50
240.6030427
51
257.7373942
0
ARC
8
0
10
21.0989772
20
28.5392214
40
6.2216788
50
200.0267913
51
240.6101567
0
ARC
8
0
10
21.0489883
20
28.5123379
40
6.1655116
50
185.8036151
51
199.9511586
0
ARC
8
0
10
21.1565739
20
28.524364
40
6.2737618
50
179.9906317
51
185.8135285
0
ARC
8
0
10
21.1074967
20
28.5289879
40
6.2246857
50
167.7633502
51
180.033119
0
ARC
8
0
10
21.0437864
20
28.5399497
40
6.1601001
50
150.6030427
51
167.7373942
0
ARC
8
0
10
21.0978154
20
28.5103964
40
6.2216788
50
110.0267913
51
150.6101567
0
ARC
8
0
10
21.0709319
20
28.5603853
40
6.1655116
50
95.8036151
51
109.9511586
0
ARC
8
0
10
21.082958
20
28.4527997
40
6.2737618
50
89.9906317
51
95.8135285
0
LINE
8
DEFAULT_255_2_778
10
52.0898423
20
59.5312483
11
52.0898423
21
37.2070302
0
LINE
8
DEFAULT_255_2_778
10
52.0898423
20
37.2070302
11
64.4921857
21
37.2070302
0
LINE
8
DEFAULT_255_2_778
10
21.0839838
20
34.7265615
11
21.0839838
21
22.3242181
0
ARC
8
0
10
27.0090728
20
32.4030567
40
2.2043869
50
154.3693041
51
180.0505415
0
ARC
8
0
10
27.1675087
20
32.3107357
40
2.3872133
50
117.3715926
51
154.0164294
0
ARC
8
0
10
27.2675533
20
32.1439136
40
2.5813837
50
97.0834913
51
117.6411819
0
ARC
8
0
10
27.2843149
20
32.037152
40
2.6893997
50
89.982092
51
97.1573815
0
ARC
8
0
10
27.2895132
20
32.0856486
40
2.6409066
50
72.0375836
51
90.0945428
0
ARC
8
0
10
27.3349928
20
32.2184899
40
2.5005156
50
46.775641
51
72.0901837
0
ARC
8
0
10
27.5133802
20
32.3907374
40
2.2528649
50
3.6802448
51
47.081391
0
ARC
8
0
10
27.5298982
20
32.4012567
40
2.2357258
50
359.9962986
51
3.4383901
0
ARC
8
0
10
27.5612382
20
32.3991677
40
2.2043869
50
334.3693041
51
0.0505415
0
ARC
8
0
10
27.4028023
20
32.4914888
40
2.3872133
50
297.3715926
51
334.0164294
0
ARC
8
0
10
27.3027577
20
32.6583108
40
2.5813837
50
277.0834913
51
297.6411819
0
ARC
8
0
10
27.2859961
20
32.7650724
40
2.6893997
50
269.982092
51
277.1573815
0
ARC
8
0
10
27.2807978
20
32.7165758
40
2.6409066
50
252.0375836
51
270.0945428
0
ARC
8
0
10
27.2353181
20
32.5837346
40
2.5005156
50
226.775641
51
252.0901837
0
ARC
8
0
10
27.0569307
20
32.4114871
40
2.2528649
50
183.6802448
51
227.081391
0
ARC
8
0
10
27.0404128
20
32.4009678
40
2.2357258
50
179.9962986
51
183.4383901
0
LINE
8
DEFAULT_255_2_778
10
24.8046868
20
32.4011122
11
24.8046868
21
32.4011122
0
LINE
8
DEFAULT_255_2_778
10
28.5253898
20
30.0756728
11
29.7656242
21
24.8046769
0
LINE
8
DEFAULT_255_2_778
10
29.7656242
20
24.8046769
11
29.7656242
21
22.3242082
0
LINE
8
DEFAULT_255_2_778
10
29.7656242
20
22.3242082
11
24.8046868
21
22.3242082
0
LINE
8
DEFAULT_255_2_778
10
24.8046868
20
22.3242082
11
24.8046868
21
24.8046769
0
LINE
8
DEFAULT_255_2_778
10
24.8046868
20
24.8046769
11
26.0449212
21
30.0756728
0
LINE
8
DEFAULT_255_2_778_064_085
10
56.740731
20
28.5253898
11
39.6875088
21
28.5253898
0
LINE
8
DEFAULT_255_2_778
10
39.6875121
20
28.5253766
11
36.5869263
21
22.3242049
0
LINE
8
DEFAULT_255_2_778
10
36.5869263
20
22.3242049
11
33.4863404
21
28.5253766
0
LINE
8
DEFAULT_255_2_778_064_085
10
33.4863272
20
28.5253898
11
21.0839838
21
28.5253898
0
LINE
8
DEFAULT_4_2_778
10
48.9892564
20
59.5312483
11
55.1904282
21
59.5312483
0
LINE
8
DEFAULT_4_2_778
10
52.0898423
20
62.6318408
11
52.0898423
21
59.531255
0
LINE
8
DEFAULT_4_2_778
10
48.9892564
20
-2.4804621
11
55.1904282
21
-2.4804621
0
LINE
8
DEFAULT_4_2_778
10
52.0898423
20
-2.4804753
11
52.0898423
21
-5.5810611
0
ENDSEC
0
EOF