0
SECTION
2
HEADER
0
ENDSEC
0
SECTION
2
TABLES
0
TABLE
2
LTYPE
0
LTYPE
72
65
70
64
2
CONTINUOUS
3
______
73
0
40
0
0
LTYPE
72
65
70
64
2
DASH_DEFAULT_255_2_778_064_085
3
______
73
2
40
2
49
-0.19921568073322585
49
0.2645833259738156
0
ENDTAB
0
TABLE
2
LAYER
0
LAYER
2
DEFAULT_255_2_778
70
0
62
255
6
CONTINUOUS
0
LAYER
2
DEFAULT_255_2_778_064_085
70
0
62
255
6
DASH_DEFAULT_255_2_778_064_085
0
LAYER
2
DEFAULT_4_2_778
70
0
62
4
6
CONTINUOUS
0
ENDTAB
0
ENDSEC
0
SECTION
2
ENTITIES
0
LINE
8
DEFAULT_255_2_778
10
57.0507797
20
40.92772
11
47.1289049
21
16.1230332
0
LINE
8
DEFAULT_255_2_778
10
47.1289049
20
16.1230332
11
47.1289049
21
-2.4804819
0
LINE
8
DEFAULT_255_2_778
10
47.1289049
20
59.5312483
11
47.1289049
21
37.2070302
0
LINE
8
DEFAULT_255_2_778
10
47.1289049
20
37.2070302
11
59.5312483
21
37.2070302
0
LINE
8
DEFAULT_255_2_778_064_085
10
51.4697317
20
28.5253898
11
40.9277399
21
28.5253898
0
LINE
8
DEFAULT_255_2_778
10
24.8047
20
34.7265615
11
22.3242314
21
34.7265615
0
LINE
8
DEFAULT_255_2_778
10
22.3242314
20
34.7265615
11
22.3242314
21
22.3242181
0
LINE
8
DEFAULT_255_2_778
10
22.3242314
20
22.3242181
11
19.8437627
21
22.3242181
0
LINE
8
DEFAULT_255_2_778
10
40.9277465
20
28.5253898
11
37.8271606
21
22.3242181
0
LINE
8
DEFAULT_255_2_778
10
37.8271606
20
22.3242181
11
34.7265748
21
28.5253898
0
LINE
8
DEFAULT_255_2_778_064_085
10
34.7265615
20
28.5253898
11
22.3242181
21
28.5253898
0
LINE
8
DEFAULT_4_2_778
10
44.0283191
20
59.5312483
11
50.2294908
21
59.5312483
0
LINE
8
DEFAULT_4_2_778
10
47.1289049
20
62.6318408
11
47.1289049
21
59.531255
0
LINE
8
DEFAULT_4_2_778
10
44.0283191
20
-2.4804621
11
50.2294908
21
-2.4804621
0
LINE
8
DEFAULT_4_2_778
10
47.1289049
20
-2.4804753
11
47.1289049
21
-5.5810611
0
ENDSEC
0
EOF