0
SECTION
2
HEADER
0
ENDSEC
0
SECTION
2
TABLES
0
TABLE
2
LTYPE
0
LTYPE
72
65
70
64
2
CONTINUOUS
3
______
73
0
40
0
0
LTYPE
72
65
70
64
2
DASH_DEFAULT_255_2_778_064_085
3
______
73
2
40
2
49
-0.19921568073322585
49
0.2645833259738156
0
ENDTAB
0
TABLE
2
LAYER
0
LAYER
2
DEFAULT_255_2_778
70
0
62
255
6
CONTINUOUS
0
LAYER
2
DEFAULT_255_2_778_064_085
70
0
62
255
6
DASH_DEFAULT_255_2_778_064_085
0
LAYER
2
DEFAULT_4_2_778
70
0
62
4
6
CONTINUOUS
0
ENDTAB
0
ENDSEC
0
SECTION
2
ENTITIES
0
LINE
8
DEFAULT_255_2_778
10
17.3632808
20
34.7265483
11
14.8828121
21
34.7265483
0
LINE
8
DEFAULT_255_2_778
10
14.8828121
20
34.7265483
11
14.8828121
21
22.3242049
0
LINE
8
DEFAULT_255_2_778
10
14.8828121
20
22.3242049
11
12.4023434
21
22.3242049
0
LINE
8
DEFAULT_255_2_778
10
20.4638666
20
40.92772
11
29.7656242
21
25.4247908
0
LINE
8
DEFAULT_255_2_778_064_085
10
29.7656176
20
25.4247974
11
39.0673751
21
40.9277266
0
LINE
8
DEFAULT_255_2_778_064_085
10
42.1679676
20
28.5253898
11
14.8828121
21
28.5253898
0
LINE
8
DEFAULT_255_2_778
10
63.8720619
20
40.92772
11
54.5703044
21
16.1230332
0
LINE
8
DEFAULT_255_2_778
10
54.5703044
20
16.1230332
11
54.5703044
21
-2.4804819
0
LINE
8
DEFAULT_255_2_778
10
54.570311
20
59.5312483
11
54.570311
21
37.2070302
0
LINE
8
DEFAULT_255_2_778
10
54.570311
20
37.2070302
11
66.9726544
21
37.2070302
0
LINE
8
DEFAULT_255_2_778
10
48.3691393
20
28.5253898
11
45.2685534
21
22.3242181
0
LINE
8
DEFAULT_255_2_778
10
45.2685534
20
22.3242181
11
42.1679676
21
28.5253898
0
LINE
8
DEFAULT_255_2_778_064_085
10
58.9111378
20
28.5253898
11
48.3691459
21
28.5253898
0
LINE
8
DEFAULT_4_2_778
10
51.4697251
20
59.5312483
11
57.6708968
21
59.5312483
0
LINE
8
DEFAULT_4_2_778
10
54.570311
20
62.6318408
11
54.570311
21
59.531255
0
LINE
8
DEFAULT_4_2_778
10
51.4697251
20
-2.4804621
11
57.6708968
21
-2.4804621
0
LINE
8
DEFAULT_4_2_778
10
54.570311
20
-2.4804753
11
54.570311
21
-5.5810611
0
ENDSEC
0
EOF