0
SECTION
2
HEADER
0
ENDSEC
0
SECTION
2
TABLES
0
TABLE
2
LTYPE
0
LTYPE
72
65
70
64
2
CONTINUOUS
3
______
73
0
40
0
0
LTYPE
72
65
70
64
2
DASH_DEFAULT_255_2_778_064_085
3
______
73
2
40
2
49
-0.19921568073322585
49
0.2645833259738156
0
ENDTAB
0
TABLE
2
LAYER
0
LAYER
2
DEFAULT_255_2_778
70
0
62
255
6
CONTINUOUS
0
LAYER
2
DEFAULT_255_2_778_064_085
70
0
62
255
6
DASH_DEFAULT_255_2_778_064_085
0
LAYER
2
DEFAULT_4_2_778
70
0
62
4
6
CONTINUOUS
0
ENDTAB
0
ENDSEC
0
SECTION
2
ENTITIES
0
LINE
8
DEFAULT_255_2_778
10
11.1621091
20
34.7265615
11
8.6816404
21
34.7265615
0
LINE
8
DEFAULT_255_2_778
10
8.6816404
20
34.7265615
11
8.6816404
21
22.3242181
0
LINE
8
DEFAULT_255_2_778
10
8.6816404
20
22.3242181
11
6.2011717
21
22.3242181
0
LINE
8
DEFAULT_255_2_778_064_085
10
26.6650383
20
28.5253898
11
8.6816404
21
28.5253898
0
LINE
8
DEFAULT_255_2_778_064_085
10
48.3691393
20
28.5253898
11
26.6650383
21
28.5253898
0
LINE
8
DEFAULT_255_2_778
10
35.9668091
20
31.6259757
11
35.9668091
21
25.424804
0
LINE
8
DEFAULT_255_2_778
10
35.9668091
20
25.424804
11
42.1679808
21
28.5253898
0
LINE
8
DEFAULT_255_2_778
10
42.1679808
20
28.5253898
11
35.9668091
21
31.6259757
0
LINE
8
DEFAULT_255_2_778_064_085
10
45.8886706
20
34.7265483
11
45.8886706
21
28.5253766
0
LINE
8
DEFAULT_255_2_778
10
54.5703242
20
28.5253766
11
51.4697384
21
22.3242049
0
LINE
8
DEFAULT_255_2_778
10
51.4697384
20
22.3242049
11
48.3691525
21
28.5253766
0
LINE
8
DEFAULT_255_2_778_064_085
10
65.1123095
20
28.5253898
11
54.5703176
21
28.5253898
0
LINE
8
DEFAULT_255_2_778
10
14.2627015
20
40.9277266
11
23.5644591
21
25.4247974
0
LINE
8
DEFAULT_255_2_778_064_085
10
23.5644459
20
25.4247974
11
32.8662034
21
40.9277266
0
LINE
8
DEFAULT_255_2_778_064_085
10
23.5644525
20
34.7265483
11
23.5644525
21
28.5253766
0
LINE
8
DEFAULT_255_2_778
10
70.0732336
20
40.92772
11
60.7714761
21
16.1230332
0
LINE
8
DEFAULT_255_2_778
10
60.7714761
20
16.1230332
11
60.7714761
21
-2.4804819
0
LINE
8
DEFAULT_255_2_778
10
60.7714827
20
59.5312483
11
60.7714827
21
37.2070302
0
LINE
8
DEFAULT_255_2_778
10
60.7714827
20
37.2070302
11
73.1738261
21
37.2070302
0
LINE
8
DEFAULT_4_2_778
10
57.6708968
20
59.5312483
11
63.8720685
21
59.5312483
0
LINE
8
DEFAULT_4_2_778
10
60.7714827
20
62.6318408
11
60.7714827
21
59.531255
0
LINE
8
DEFAULT_4_2_778
10
57.6708968
20
-2.4804621
11
63.8720685
21
-2.4804621
0
LINE
8
DEFAULT_4_2_778
10
60.7714827
20
-2.4804753
11
60.7714827
21
-5.5810611
0
ENDSEC
0
EOF