0
SECTION
2
HEADER
0
ENDSEC
0
SECTION
2
TABLES
0
TABLE
2
LTYPE
0
LTYPE
72
65
70
64
2
CONTINUOUS
3
______
73
0
40
0
0
LTYPE
72
65
70
64
2
DASH_DEFAULT_255_2_778_064_085
3
______
73
2
40
2
49
-0.19921568073322585
49
0.2645833259738156
0
ENDTAB
0
TABLE
2
LAYER
0
LAYER
2
DEFAULT_255_2_778
70
0
62
255
6
CONTINUOUS
0
LAYER
2
DEFAULT_255_2_778_064_085
70
0
62
255
6
DASH_DEFAULT_255_2_778_064_085
0
LAYER
2
DEFAULT_4_2_778
70
0
62
4
6
CONTINUOUS
0
ENDTAB
0
ENDSEC
0
SECTION
2
ENTITIES
0
LINE
8
DEFAULT_255_2_778
10
9.6118095
20
34.7265483
11
7.1313408
21
34.7265483
0
LINE
8
DEFAULT_255_2_778
10
7.1313408
20
34.7265483
11
7.1313408
21
22.3242049
0
LINE
8
DEFAULT_255_2_778
10
7.1313408
20
22.3242049
11
4.6508722
21
22.3242049
0
LINE
8
DEFAULT_255_2_778
10
12.7123954
20
40.92772
11
22.0141529
21
25.4247908
0
LINE
8
DEFAULT_255_2_778_064_085
10
22.0141728
20
25.4247974
11
31.3159303
21
40.9277266
0
LINE
8
DEFAULT_255_2_778_064_085
10
22.0141529
20
40.9277266
11
22.0141529
21
25.4247974
0
LINE
8
DEFAULT_255_2_778_064_085
10
43.0981566
20
28.5253898
11
7.1313607
21
28.5253898
0
LINE
8
DEFAULT_255_2_778_064_085
10
49.2993283
20
28.5253898
11
53.0200313
21
28.5253898
0
LINE
8
DEFAULT_255_2_778_064_085
10
68.5229605
20
28.5253898
11
59.221203
21
28.5253898
0
LINE
8
DEFAULT_255_2_778
10
71.6235398
20
59.5312483
11
71.6235398
21
40.9277332
0
LINE
8
DEFAULT_255_2_778
10
65.4223681
20
40.9277332
11
71.6235398
21
16.1230464
0
LINE
8
DEFAULT_255_2_778
10
71.6235398
20
16.1230464
11
71.6235398
21
-2.4804687
0
LINE
8
DEFAULT_255_2_778
10
33.1762752
20
31.6259757
11
33.1762752
21
25.424804
0
LINE
8
DEFAULT_255_2_778
10
33.1762752
20
25.424804
11
39.3774469
21
28.5253898
0
LINE
8
DEFAULT_255_2_778
10
39.3774469
20
28.5253898
11
33.1762752
21
31.6259757
0
LINE
8
DEFAULT_255_2_778
10
49.2993216
20
28.5253898
11
46.1987358
21
22.3242181
0
LINE
8
DEFAULT_255_2_778
10
46.1987358
20
22.3242181
11
43.0981499
21
28.5253898
0
LINE
8
DEFAULT_255_2_778
10
59.2211964
20
28.5253898
11
56.1206105
21
22.3242181
0
LINE
8
DEFAULT_255_2_778
10
56.1206105
20
22.3242181
11
53.0200247
21
28.5253898
0
LINE
8
DEFAULT_4_2_778
10
68.5229407
20
59.5312483
11
74.7241124
21
59.5312483
0
LINE
8
DEFAULT_4_2_778
10
71.6235265
20
62.6318408
11
71.6235265
21
59.531255
0
LINE
8
DEFAULT_4_2_778
10
68.5229407
20
-2.4804621
11
74.7241124
21
-2.4804621
0
LINE
8
DEFAULT_4_2_778
10
71.6235265
20
-2.4804753
11
71.6235265
21
-5.5810611
0
ENDSEC
0
EOF