0
SECTION
2
HEADER
0
ENDSEC
0
SECTION
2
TABLES
0
TABLE
2
LTYPE
0
LTYPE
72
65
70
64
2
CONTINUOUS
3
______
73
0
40
0
0
LTYPE
72
65
70
64
2
DASH_DEFAULT_255_2_778_064_085
3
______
73
2
40
2
49
-0.19921568073322585
49
0.2645833259738156
0
ENDTAB
0
TABLE
2
LAYER
0
LAYER
2
DEFAULT_255_2_778
70
0
62
255
6
CONTINUOUS
0
LAYER
2
DEFAULT_255_2_778_064_085
70
0
62
255
6
DASH_DEFAULT_255_2_778_064_085
0
LAYER
2
DEFAULT_4_2_778
70
0
62
4
6
CONTINUOUS
0
ENDTAB
0
ENDSEC
0
SECTION
2
ENTITIES
0
LINE
8
DEFAULT_255_2_778
10
73.1738327
20
40.92772
11
63.8720752
21
16.1230332
0
LINE
8
DEFAULT_255_2_778
10
63.8720752
20
16.1230332
11
63.8720752
21
-2.4804819
0
LINE
8
DEFAULT_255_2_778
10
63.8720685
20
59.5312483
11
63.8720685
21
37.2070302
0
LINE
8
DEFAULT_255_2_778
10
63.8720685
20
37.2070302
11
76.2744119
21
37.2070302
0
LINE
8
DEFAULT_255_2_778
10
8.0615232
20
34.7265615
11
5.5810545
21
34.7265615
0
LINE
8
DEFAULT_255_2_778
10
5.5810545
20
34.7265615
11
5.5810545
21
22.3242181
0
LINE
8
DEFAULT_255_2_778
10
5.5810545
20
22.3242181
11
3.1005859
21
22.3242181
0
LINE
8
DEFAULT_255_2_778
10
11.1621091
20
40.9277332
11
20.4638666
21
25.424804
0
LINE
8
DEFAULT_255_2_778_064_085
10
20.4638732
20
25.4247974
11
29.7656308
21
40.9277266
0
LINE
8
DEFAULT_255_2_778_064_085
10
20.4638798
20
40.9277266
11
20.4638798
21
25.4247974
0
LINE
8
DEFAULT_255_2_778_064_085
10
41.5478603
20
28.5253898
11
5.5810645
21
28.5253898
0
LINE
8
DEFAULT_255_2_778_064_085
10
47.749032
20
28.5253898
11
51.4697351
21
28.5253898
0
LINE
8
DEFAULT_255_2_778_064_085
10
68.5229572
20
28.5253898
11
57.6709068
21
28.5253898
0
LINE
8
DEFAULT_255_2_778
10
31.6259757
20
31.6259691
11
31.6259757
21
25.4247974
0
LINE
8
DEFAULT_255_2_778
10
31.6259757
20
25.4247974
11
37.8271474
21
28.5253832
0
LINE
8
DEFAULT_255_2_778
10
37.8271474
20
28.5253832
11
31.6259757
21
31.6259691
0
LINE
8
DEFAULT_255_2_778
10
47.7490221
20
28.5253832
11
44.6484363
21
22.3242115
0
LINE
8
DEFAULT_255_2_778
10
44.6484363
20
22.3242115
11
41.5478504
21
28.5253832
0
LINE
8
DEFAULT_255_2_778
10
57.6708968
20
28.5253832
11
54.570311
21
22.3242115
0
LINE
8
DEFAULT_255_2_778
10
54.570311
20
22.3242115
11
51.4697251
21
28.5253832
0
LINE
8
DEFAULT_4_2_778
10
60.7714959
20
59.5312483
11
66.9726676
21
59.5312483
0
LINE
8
DEFAULT_4_2_778
10
63.8720818
20
62.6318408
11
63.8720818
21
59.531255
0
LINE
8
DEFAULT_4_2_778
10
60.7714959
20
-2.4804621
11
66.9726676
21
-2.4804621
0
LINE
8
DEFAULT_4_2_778
10
63.8720818
20
-2.4804753
11
63.8720818
21
-5.5810611
0
ENDSEC
0
EOF