0
SECTION
2
HEADER
0
ENDSEC
0
SECTION
2
TABLES
0
TABLE
2
LTYPE
0
LTYPE
72
65
70
64
2
CONTINUOUS
3
______
73
0
40
0
0
LTYPE
72
65
70
64
2
DASH_DEFAULT_255_2_778_064_085
3
______
73
2
40
2
49
-0.19921568073322585
49
0.2645833259738156
0
ENDTAB
0
TABLE
2
LAYER
0
LAYER
2
DEFAULT_255_2_778
70
0
62
255
6
CONTINUOUS
0
LAYER
2
DEFAULT_255_2_778_064_085
70
0
62
255
6
DASH_DEFAULT_255_2_778_064_085
0
LAYER
2
DEFAULT_4_2_778
70
0
62
4
6
CONTINUOUS
0
ENDTAB
0
ENDSEC
0
SECTION
2
ENTITIES
0
LINE
8
DEFAULT_255_2_778
10
9.6118095
20
34.7265615
11
7.1313408
21
34.7265615
0
LINE
8
DEFAULT_255_2_778
10
7.1313408
20
34.7265615
11
7.1313408
21
22.3242181
0
LINE
8
DEFAULT_255_2_778
10
7.1313408
20
22.3242181
11
4.6508722
21
22.3242181
0
LINE
8
DEFAULT_255_2_778_064_085
10
30.6958065
20
28.5253898
11
7.1313541
21
28.5253898
0
LINE
8
DEFAULT_255_2_778
10
12.712402
20
40.9277266
11
22.0141595
21
25.4247974
0
LINE
8
DEFAULT_255_2_778_064_085
10
22.0141728
20
25.4247974
11
31.3159303
21
40.9277266
0
LINE
8
DEFAULT_255_2_778_064_085
10
22.0141529
20
40.9277332
11
22.0141529
21
26.0449212
0
LINE
8
DEFAULT_255_2_778
10
71.6235398
20
59.5312483
11
71.6235398
21
40.9277332
0
LINE
8
DEFAULT_255_2_778
10
65.4223681
20
40.9277332
11
71.6235398
21
16.1230464
0
LINE
8
DEFAULT_255_2_778
10
71.6235398
20
16.1230464
11
71.6235398
21
-2.4804687
0
LINE
8
DEFAULT_255_2_778_064_085
10
48.0590741
20
28.5253898
11
53.0200114
21
28.5253898
0
LINE
8
DEFAULT_255_2_778
10
48.0590741
20
28.5253766
11
44.9584882
21
22.3242049
0
LINE
8
DEFAULT_255_2_778
10
44.9584882
20
22.3242049
11
41.8579024
21
28.5253766
0
LINE
8
DEFAULT_255_2_778
10
59.2211831
20
28.5253766
11
56.1205973
21
22.3242049
0
LINE
8
DEFAULT_255_2_778
10
56.1205973
20
22.3242049
11
53.0200114
21
28.5253766
0
LINE
8
DEFAULT_255_2_778_064_085
10
68.5229605
20
28.5253898
11
59.221203
21
28.5253898
0
LINE
8
DEFAULT_255_2_778
10
36.8969782
20
28.5253766
11
33.7963924
21
22.3242049
0
LINE
8
DEFAULT_255_2_778
10
33.7963924
20
22.3242049
11
30.6958065
21
28.5253766
0
LINE
8
DEFAULT_255_2_778_064_085
10
36.896965
20
28.5253898
11
41.8579024
21
28.5253898
0
LINE
8
DEFAULT_4_2_778
10
68.5229407
20
59.5312483
11
74.7241124
21
59.5312483
0
LINE
8
DEFAULT_4_2_778
10
71.6235265
20
62.6318408
11
71.6235265
21
59.531255
0
LINE
8
DEFAULT_4_2_778
10
68.5229407
20
-2.4804621
11
74.7241124
21
-2.4804621
0
LINE
8
DEFAULT_4_2_778
10
71.6235265
20
-2.4804753
11
71.6235265
21
-5.5810611
0
ENDSEC
0
EOF