0
SECTION
2
HEADER
0
ENDSEC
0
SECTION
2
TABLES
0
TABLE
2
LTYPE
0
LTYPE
72
65
70
64
2
CONTINUOUS
3
______
73
0
40
0
0
ENDTAB
0
TABLE
2
LAYER
0
LAYER
2
DEFAULT_255_2_778
70
0
62
255
6
CONTINUOUS
0
LAYER
2
DEFAULT_4_2_778
70
0
62
4
6
CONTINUOUS
0
ENDTAB
0
ENDSEC
0
SECTION
2
ENTITIES
0
LINE
8
DEFAULT_255_2_778
10
48.9892498
20
40.92772
11
39.6874923
21
16.1230332
0
LINE
8
DEFAULT_255_2_778
10
39.6874923
20
16.1230332
11
39.6874923
21
-2.4804819
0
LINE
8
DEFAULT_255_2_778
10
39.6874989
20
59.5312351
11
39.6874989
21
38.4472513
0
LINE
8
DEFAULT_255_2_778
10
39.6874989
20
38.4472513
11
52.0898423
21
38.4472513
0
LINE
8
DEFAULT_255_2_778
10
44.0283191
20
28.5253766
11
37.2070302
21
28.5253766
0
LINE
8
DEFAULT_255_2_778
10
37.2070302
20
28.5253766
11
37.2070302
21
34.7265483
0
LINE
8
DEFAULT_255_2_778
10
37.2070302
20
34.7265483
11
31.0058585
21
34.7265483
0
LINE
8
DEFAULT_255_2_778
10
31.0058585
20
34.7265483
11
31.0058585
21
28.5253766
0
LINE
8
DEFAULT_255_2_778
10
31.0058585
20
28.5253766
11
27.2851555
21
28.5253766
0
LINE
8
DEFAULT_4_2_778
10
36.586913
20
59.5312483
11
42.7880847
21
59.5312483
0
LINE
8
DEFAULT_4_2_778
10
39.6874989
20
62.6318408
11
39.6874989
21
59.531255
0
LINE
8
DEFAULT_4_2_778
10
36.586913
20
-2.4804621
11
42.7880847
21
-2.4804621
0
LINE
8
DEFAULT_4_2_778
10
39.6874989
20
-2.4804753
11
39.6874989
21
-5.5810611
0
ENDSEC
0
EOF