0
SECTION
2
HEADER
0
ENDSEC
0
SECTION
2
TABLES
0
TABLE
2
LTYPE
0
LTYPE
72
65
70
64
2
CONTINUOUS
3
______
73
0
40
0
0
ENDTAB
0
TABLE
2
LAYER
0
LAYER
2
DEFAULT_255_2_778
70
0
62
255
6
CONTINUOUS
0
LAYER
2
DEFAULT_4_2_778
70
0
62
4
6
CONTINUOUS
0
ENDTAB
0
ENDSEC
0
SECTION
2
ENTITIES
0
LINE
8
DEFAULT_255_2_778
10
24.8046868
20
44.0283059
11
54.570311
21
44.0283059
0
LINE
8
DEFAULT_255_2_778
10
54.570311
20
44.0283059
11
54.570311
21
14.2626817
0
LINE
8
DEFAULT_255_2_778
10
54.570311
20
14.2626817
11
24.8046868
21
14.2626817
0
LINE
8
DEFAULT_255_2_778
10
24.8046868
20
14.2626817
11
24.8046868
21
44.0283059
0
LINE
8
DEFAULT_255_2_778
10
39.5634688
20
61.5466374
11
39.6874923
21
44.0283274
0
LINE
8
DEFAULT_255_2_778
10
39.6874923
20
-1.8603432
11
39.6874923
21
14.2627032
0
ARC
8
0
10
39.6860453
20
44.0315091
40
1.5488426
50
152.2809376
51
180.1175159
0
ARC
8
0
10
39.683656
20
44.0319212
40
1.5465361
50
98.5930764
51
152.2532835
0
ARC
8
0
10
39.6869083
20
44.0035501
40
1.5750751
50
89.9785152
51
98.5558509
0
ARC
8
0
10
39.6906767
20
44.0297863
40
1.5488422
50
62.2808221
51
90.1175556
0
ARC
8
0
10
39.6910854
20
44.0321738
40
1.5465387
50
8.5930443
51
62.2530827
0
ARC
8
0
10
39.6627387
20
44.0289228
40
1.5750533
50
359.9785217
51
8.555909
0
ARC
8
0
10
39.6889525
20
44.0251556
40
1.5488426
50
332.2809376
51
0.1175159
0
ARC
8
0
10
39.6913418
20
44.0247434
40
1.5465361
50
278.5930764
51
332.2532835
0
ARC
8
0
10
39.6880895
20
44.0531145
40
1.5750751
50
269.9785152
51
278.5558509
0
ARC
8
0
10
39.6843211
20
44.0268783
40
1.5488422
50
242.2808221
51
270.1175556
0
ARC
8
0
10
39.6839124
20
44.0244908
40
1.5465387
50
188.5930443
51
242.2530827
0
ARC
8
0
10
39.7122591
20
44.0277419
40
1.5750533
50
179.9785217
51
188.555909
0
LINE
8
DEFAULT_255_2_778
10
38.137206
20
44.0283323
11
38.137206
21
44.0283323
0
ARC
8
0
10
39.6860534
20
14.1331715
40
1.5488507
50
152.2810128
51
180.1175751
0
ARC
8
0
10
39.6836501
20
14.1335875
40
1.54653
50
98.5928905
51
152.2532441
0
ARC
8
0
10
39.6869083
20
14.1052111
40
1.5750751
50
89.978515
51
98.5558505
0
ARC
8
0
10
39.6906772
20
14.1314387
40
1.5488507
50
62.2810128
51
90.1175751
0
ARC
8
0
10
39.6910933
20
14.1338419
40
1.54653
50
8.5928905
51
62.2532441
0
ARC
8
0
10
39.6627169
20
14.1305838
40
1.5750751
50
359.978515
51
8.5558505
0
ARC
8
0
10
39.6889444
20
14.1268148
40
1.5488507
50
332.2810128
51
0.1175751
0
ARC
8
0
10
39.6913477
20
14.1263988
40
1.54653
50
278.5928905
51
332.2532441
0
ARC
8
0
10
39.6880895
20
14.1547752
40
1.5750751
50
269.978515
51
278.5558505
0
ARC
8
0
10
39.6843205
20
14.1285476
40
1.5488507
50
242.2810128
51
270.1175751
0
ARC
8
0
10
39.6839045
20
14.1261444
40
1.54653
50
188.5928905
51
242.2532441
0
ARC
8
0
10
39.7122809
20
14.1294025
40
1.5750751
50
179.978515
51
188.5558505
0
LINE
8
DEFAULT_255_2_778
10
38.137206
20
14.1299931
11
38.137206
21
14.1299931
0
LINE
8
DEFAULT_255_2_778
10
30.978579
20
38.2922303
11
30.978579
21
32.4011172
0
LINE
8
DEFAULT_255_2_778
10
33.4590497
20
32.2460879
11
33.4590497
21
38.6022889
0
LINE
8
DEFAULT_255_2_778
10
32.3205161
20
39.6341763
11
37.045815
21
35.3206396
0
LINE
8
DEFAULT_255_2_778
10
37.045815
20
35.3206396
11
32.3205161
21
31.0058676
0
LINE
8
DEFAULT_255_2_778
10
32.3205161
20
31.0058676
11
27.5952253
21
35.3194042
0
LINE
8
DEFAULT_255_2_778
10
27.5952253
20
35.3194042
11
32.3205161
21
39.6341763
0
LINE
8
DEFAULT_4_2_778
10
36.586913
20
61.3916131
11
42.7880847
21
61.3916131
0
LINE
8
DEFAULT_4_2_778
10
39.6874989
20
64.4921923
11
39.6874989
21
61.3916065
0
LINE
8
DEFAULT_4_2_778
10
36.586913
20
-1.8603449
11
42.7880847
21
-1.8603449
0
LINE
8
DEFAULT_4_2_778
10
39.6874989
20
-1.8603449
11
39.6874989
21
-4.9609307
0
LINE
8
DEFAULT_255_2_778
10
50.2294908
20
32.4234347
11
49.4022521
21
33.486314
0
LINE
8
DEFAULT_255_2_778
10
49.4022521
20
33.486314
11
48.9892564
21
32.2460796
0
LINE
8
DEFAULT_255_2_778
10
48.9892564
20
32.2460796
11
50.2294908
21
32.4234347
0
LINE
8
DEFAULT_255_2_778
10
45.8886772
20
38.4472687
11
45.8886772
21
32.3974039
0
LINE
8
DEFAULT_255_2_778
10
44.0283257
20
35.3466828
11
45.8886772
21
35.3466828
0
LINE
8
DEFAULT_255_2_778
10
45.888664
20
36.5869064
11
50.2294842
21
38.4472579
0
LINE
8
DEFAULT_255_2_778
10
45.888664
20
34.1064377
11
49.609367
21
32.8662034
0
LINE
8
DEFAULT_255_2_778
10
47.1288983
20
26.6650317
11
47.1288983
21
23.9526368
0
LINE
8
DEFAULT_255_2_778
10
47.1288983
20
17.9833913
11
47.1288983
21
20.6957862
0
LINE
8
DEFAULT_255_2_778
10
47.1288983
20
20.6957862
11
45.888664
21
23.9514014
0
ENDSEC
0
EOF