0
SECTION
2
HEADER
0
ENDSEC
0
SECTION
2
TABLES
0
TABLE
2
LTYPE
0
LTYPE
72
65
70
64
2
CONTINUOUS
3
______
73
0
40
0
0
ENDTAB
0
TABLE
2
LAYER
0
LAYER
2
DEFAULT_255_2_778
70
0
62
255
6
CONTINUOUS
0
LAYER
2
DEFAULT_4_2_778
70
0
62
4
6
CONTINUOUS
0
ENDTAB
0
ENDSEC
0
SECTION
2
ENTITIES
0
LINE
8
DEFAULT_255_2_778
10
15.1928773
20
50.2294776
11
44.9585015
21
50.2294776
0
LINE
8
DEFAULT_255_2_778
10
44.9585015
20
50.2294776
11
44.9585015
21
8.06151
0
LINE
8
DEFAULT_255_2_778
10
44.9585015
20
8.06151
11
15.1928773
21
8.06151
0
LINE
8
DEFAULT_255_2_778
10
15.1928773
20
8.06151
11
15.1928773
21
50.2294776
0
LINE
8
DEFAULT_255_2_778
10
31.1546896
20
29.1455037
11
34.1089262
21
29.1455037
0
LINE
8
DEFAULT_255_2_778
10
34.1089262
20
29.1455037
11
37.3645413
21
31.3159138
0
LINE
8
DEFAULT_255_2_778
10
37.5084158
20
29.1455037
11
40.7727109
21
29.1455037
0
LINE
8
DEFAULT_255_2_778
10
40.7813934
20
41.5478438
11
37.5257783
21
41.5478438
0
LINE
8
DEFAULT_255_2_778
10
37.5257783
20
41.5478438
11
37.5183377
21
39.6874923
0
LINE
8
DEFAULT_255_2_778
10
31.3233668
20
41.5478521
11
34.5851872
21
41.5478521
0
LINE
8
DEFAULT_255_2_778
10
34.5851872
20
41.5478521
11
38.8230704
21
40.3386236
0
LINE
8
DEFAULT_255_2_778
10
31.3159237
20
16.7431504
11
40.7417047
21
16.7431504
0
LINE
8
DEFAULT_255_2_778
10
31.3159237
20
41.5478372
11
31.3159237
21
16.7431504
0
LINE
8
DEFAULT_255_2_778
10
26.3549864
20
22.9443353
11
28.835455
21
22.9443353
0
LINE
8
DEFAULT_255_2_778
10
28.835455
20
22.9443353
11
28.835455
21
14.2626949
0
LINE
8
DEFAULT_255_2_778
10
28.835455
20
14.2626949
11
26.3549864
21
14.2626949
0
LINE
8
DEFAULT_255_2_778
10
26.3549864
20
14.2626949
11
26.3549864
21
22.9443353
0
LINE
8
DEFAULT_255_2_778
10
20.1538146
20
20.4638666
11
25.114752
21
20.4638666
0
LINE
8
DEFAULT_255_2_778
10
25.114752
20
20.4638666
11
22.7136551
21
21.704101
0
LINE
8
DEFAULT_255_2_778
10
22.7136551
20
21.704101
11
22.7136551
21
19.2236323
0
LINE
8
DEFAULT_255_2_778
10
22.7136551
20
19.2236323
11
25.114752
21
20.4638666
0
LINE
8
DEFAULT_255_2_778
10
25.114752
20
16.8175777
11
20.1538146
21
16.8175777
0
LINE
8
DEFAULT_255_2_778
10
20.1538146
20
16.8175777
11
22.5598713
21
17.9833979
0
LINE
8
DEFAULT_255_2_778
10
22.5598713
20
17.9833979
11
22.5598713
21
15.5029293
0
LINE
8
DEFAULT_255_2_778
10
22.5598713
20
15.5029293
11
20.1538146
21
16.8175777
0
LINE
8
DEFAULT_255_2_778
10
22.6351554
20
46.1972385
11
27.2857738
21
41.5466181
0
LINE
8
DEFAULT_255_2_778
10
27.2857738
20
41.5466181
11
22.6351554
21
36.8960017
0
LINE
8
DEFAULT_255_2_778
10
22.6351554
20
36.8960017
11
17.9845391
21
41.5466181
0
LINE
8
DEFAULT_255_2_778
10
17.9845391
20
41.5466181
11
22.6351554
21
46.1972385
0
LINE
8
DEFAULT_255_2_778
10
21.394049
20
44.8034606
11
21.394049
21
38.4472596
0
LINE
8
DEFAULT_255_2_778
10
23.8745177
20
38.4472596
11
23.8745177
21
44.8034606
0
ARC
8
0
10
31.2863902
20
29.1472788
40
0.4934079
50
314.8114046
51
0.6589182
0
ARC
8
0
10
31.3499254
20
29.0845463
40
0.4041265
50
270.2783468
51
314.6892659
0
ARC
8
0
10
31.3668274
20
29.1177091
40
0.4375397
50
190.3830831
51
268.0433886
0
ARC
8
0
10
31.4481536
20
29.1524475
40
0.5241582
50
179.9447449
51
192.516459
0
ARC
8
0
10
31.4173681
20
29.1586297
40
0.493405
50
134.8108545
51
180.6592136
0
ARC
8
0
10
31.3538483
20
29.2213407
40
0.4041496
50
90.2778214
51
134.6880056
0
ARC
8
0
10
31.3369383
20
29.1882075
40
0.4375335
50
10.3820256
51
88.0418411
0
ARC
8
0
10
31.2555932
20
29.1534585
40
0.5241727
50
359.9447437
51
12.5162793
0
LINE
8
DEFAULT_255_2_778
10
31.7797655
20
29.152953
11
31.7797655
21
29.152953
0
LINE
8
DEFAULT_255_2_778
10
30.0756761
20
-1.8603515
11
30.0756761
21
8.2165525
0
LINE
8
DEFAULT_255_2_778
10
61.0815347
20
16.7431636
11
44.9584882
21
16.7431636
0
LINE
8
DEFAULT_255_2_778
10
61.0815347
20
29.145507
11
44.9584882
21
29.145507
0
LINE
8
DEFAULT_255_2_778
10
61.0815347
20
41.5478504
11
44.9584882
21
41.5478504
0
LINE
8
DEFAULT_255_2_778
10
30.0756761
20
61.3915999
11
30.0756761
21
50.3845201
0
ARC
8
0
10
44.955607
20
41.5507562
40
1.2373432
50
147.4067322
51
180.1339424
0
ARC
8
0
10
44.955131
20
41.5512477
40
1.2366774
50
96.4509125
51
147.4140356
0
ARC
8
0
10
44.958216
20
41.5238248
40
1.2642733
50
89.9870646
51
96.4502109
0
ARC
8
0
10
44.9613943
20
41.5507587
40
1.2373427
50
57.4065861
51
90.1339538
0
ARC
8
0
10
44.9618831
20
41.551233
40
1.2366799
50
6.4509028
51
57.4138298
0
ARC
8
0
10
44.9344779
20
41.5481489
40
1.2642581
50
359.9870719
51
6.4502458
0
ARC
8
0
10
44.9613959
20
41.5449711
40
1.2373432
50
327.4067322
51
0.1339424
0
ARC
8
0
10
44.9618719
20
41.5444796
40
1.2366774
50
276.4509125
51
327.4140356
0
ARC
8
0
10
44.9587869
20
41.5719024
40
1.2642733
50
269.9870646
51
276.4502109
0
ARC
8
0
10
44.9556086
20
41.5449686
40
1.2373427
50
237.4065861
51
270.1339538
0
ARC
8
0
10
44.9551198
20
41.5444943
40
1.2366799
50
186.4509028
51
237.4138298
0
ARC
8
0
10
44.982525
20
41.5475784
40
1.2642581
50
179.9870719
51
186.4502458
0
LINE
8
DEFAULT_255_2_778
10
43.7182671
20
41.5478636
11
43.7182671
21
41.5478636
0
ARC
8
0
10
44.9556058
20
16.7460424
40
1.237342
50
147.4067141
51
180.1339154
0
ARC
8
0
10
44.9551327
20
16.7465328
40
1.2366793
50
96.450986
51
147.4140532
0
ARC
8
0
10
44.958216
20
16.7191115
40
1.2642733
50
89.9870646
51
96.4502109
0
ARC
8
0
10
44.9613939
20
16.7460473
40
1.2373408
50
57.4065107
51
90.1339356
0
ARC
8
0
10
44.9618811
20
16.7465179
40
1.236682
50
6.450958
51
57.4137841
0
ARC
8
0
10
44.9344847
20
16.7434356
40
1.2642513
50
359.9870721
51
6.4502643
0
ARC
8
0
10
44.9613971
20
16.7402584
40
1.237342
50
327.4067141
51
0.1339154
0
ARC
8
0
10
44.9618702
20
16.7397679
40
1.2366793
50
276.450986
51
327.4140532
0
ARC
8
0
10
44.9587869
20
16.7671892
40
1.2642733
50
269.9870646
51
276.4502109
0
ARC
8
0
10
44.955609
20
16.7402534
40
1.2373408
50
237.4065107
51
270.1339356
0
ARC
8
0
10
44.9551218
20
16.7397828
40
1.236682
50
186.450958
51
237.4137841
0
ARC
8
0
10
44.9825182
20
16.7428651
40
1.2642513
50
179.9870721
51
186.4502643
0
LINE
8
DEFAULT_255_2_778
10
43.7182671
20
16.7431504
11
43.7182671
21
16.7431504
0
ARC
8
0
10
44.9556058
20
29.1483858
40
1.237342
50
147.4067141
51
180.1339154
0
ARC
8
0
10
44.9551327
20
29.1488762
40
1.2366793
50
96.450986
51
147.4140532
0
ARC
8
0
10
44.958216
20
29.1214549
40
1.2642733
50
89.9870646
51
96.4502109
0
ARC
8
0
10
44.9613939
20
29.1483907
40
1.2373408
50
57.4065107
51
90.1339356
0
ARC
8
0
10
44.9618811
20
29.1488613
40
1.236682
50
6.450958
51
57.4137841
0
ARC
8
0
10
44.9344847
20
29.145779
40
1.2642513
50
359.9870721
51
6.4502643
0
ARC
8
0
10
44.9613971
20
29.1426018
40
1.237342
50
327.4067141
51
0.1339154
0
ARC
8
0
10
44.9618702
20
29.1421113
40
1.2366793
50
276.450986
51
327.4140532
0
ARC
8
0
10
44.9587869
20
29.1695326
40
1.2642733
50
269.9870646
51
276.4502109
0
ARC
8
0
10
44.955609
20
29.1425968
40
1.2373408
50
237.4065107
51
270.1339356
0
ARC
8
0
10
44.9551218
20
29.1421262
40
1.236682
50
186.450958
51
237.4137841
0
ARC
8
0
10
44.9825182
20
29.1452085
40
1.2642513
50
179.9870721
51
186.4502643
0
LINE
8
DEFAULT_255_2_778
10
43.7182671
20
29.1454938
11
43.7182671
21
29.1454938
0
ARC
8
0
10
30.0727954
20
50.2323972
40
1.2373437
50
147.4067325
51
180.1339697
0
ARC
8
0
10
30.0723178
20
50.2328889
40
1.2366765
50
96.4508665
51
147.4140084
0
ARC
8
0
10
30.0754039
20
50.2054652
40
1.2642733
50
89.9870646
51
96.4502108
0
ARC
8
0
10
30.0785826
20
50.2323971
40
1.2373446
50
57.4066615
51
90.133972
0
ARC
8
0
10
30.079073
20
50.2328751
40
1.2366777
50
6.4508477
51
57.4138755
0
ARC
8
0
10
30.051659
20
50.2297893
40
1.2642649
50
359.9870718
51
6.4502273
0
ARC
8
0
10
30.0785834
20
50.2266108
40
1.2373437
50
327.4067325
51
0.1339697
0
ARC
8
0
10
30.079061
20
50.2261191
40
1.2366765
50
276.4508665
51
327.4140084
0
ARC
8
0
10
30.0759748
20
50.2535428
40
1.2642733
50
269.9870646
51
276.4502108
0
ARC
8
0
10
30.0727962
20
50.2266109
40
1.2373446
50
237.4066615
51
270.133972
0
ARC
8
0
10
30.0723057
20
50.2261329
40
1.2366777
50
186.4508477
51
237.4138755
0
ARC
8
0
10
30.0997198
20
50.2292188
40
1.2642649
50
179.9870718
51
186.4502273
0
LINE
8
DEFAULT_255_2_778
10
28.835455
20
50.229504
11
28.835455
21
50.229504
0
ARC
8
0
10
30.0727937
20
8.064402
40
1.237342
50
147.4067141
51
180.1339154
0
ARC
8
0
10
30.0723207
20
8.0648924
40
1.2366793
50
96.450986
51
147.4140532
0
ARC
8
0
10
30.0754039
20
8.0374711
40
1.2642733
50
89.9870646
51
96.4502109
0
ARC
8
0
10
30.0785818
20
8.0644069
40
1.2373408
50
57.4065107
51
90.1339356
0
ARC
8
0
10
30.079069
20
8.0648775
40
1.236682
50
6.450958
51
57.4137841
0
ARC
8
0
10
30.0516726
20
8.0617952
40
1.2642513
50
359.9870721
51
6.4502643
0
ARC
8
0
10
30.0785851
20
8.058618
40
1.237342
50
327.4067141
51
0.1339154
0
ARC
8
0
10
30.0790581
20
8.0581275
40
1.2366793
50
276.450986
51
327.4140532
0
ARC
8
0
10
30.0759748
20
8.0855488
40
1.2642733
50
269.9870646
51
276.4502109
0
ARC
8
0
10
30.0727969
20
8.0586131
40
1.2373408
50
237.4065107
51
270.1339356
0
ARC
8
0
10
30.0723097
20
8.0581425
40
1.236682
50
186.450958
51
237.4137841
0
ARC
8
0
10
30.0997061
20
8.0612247
40
1.2642513
50
179.9870721
51
186.4502643
0
LINE
8
DEFAULT_255_2_778
10
28.835455
20
8.06151
11
28.835455
21
8.06151
0
LINE
8
DEFAULT_4_2_778
10
61.0815479
20
32.2460796
11
61.0815479
21
26.0449079
0
LINE
8
DEFAULT_4_2_778
10
61.0815545
20
29.1455004
11
64.1821404
21
29.1455004
0
LINE
8
DEFAULT_4_2_778
10
61.0815545
20
44.6484296
11
61.0815545
21
38.4472579
0
LINE
8
DEFAULT_4_2_778
10
61.0815545
20
41.547857
11
64.1821404
21
41.547857
0
LINE
8
DEFAULT_4_2_778
10
61.0815545
20
19.8437561
11
61.0815545
21
13.6425844
0
LINE
8
DEFAULT_4_2_778
10
61.0815347
20
16.7431768
11
64.1821205
21
16.7431768
0
LINE
8
DEFAULT_4_2_778
10
26.9750903
20
61.3916131
11
33.176262
21
61.3916131
0
LINE
8
DEFAULT_4_2_778
10
30.0756894
20
64.4921923
11
30.0756894
21
61.3916065
0
LINE
8
DEFAULT_4_2_778
10
26.9751035
20
-1.8603449
11
33.1762752
21
-1.8603449
0
LINE
8
DEFAULT_4_2_778
10
30.0756894
20
-1.8603449
11
30.0756894
21
-4.9609307
0
LINE
8
DEFAULT_255_2_778
10
28.5253964
20
22.9443465
11
26.3549864
21
20.8111394
0
LINE
8
DEFAULT_255_2_778
10
28.835455
20
21.2700301
11
26.6650449
21
19.1368311
0
LINE
8
DEFAULT_255_2_778
10
28.835455
20
19.2893775
11
26.6650449
21
17.1561744
0
LINE
8
DEFAULT_255_2_778
10
28.6804257
20
17.3087208
11
26.5100156
21
15.1755218
0
LINE
8
DEFAULT_255_2_778
10
28.835455
20
15.4806146
11
27.5952207
21
14.2614667
0
ENDSEC
0
EOF