0
SECTION
2
HEADER
0
ENDSEC
0
SECTION
2
TABLES
0
TABLE
2
LTYPE
0
LTYPE
72
65
70
64
2
CONTINUOUS
3
______
73
0
40
0
0
ENDTAB
0
TABLE
2
LAYER
0
LAYER
2
DEFAULT_255_2_778
70
0
62
255
6
CONTINUOUS
0
LAYER
2
DEFAULT_4_2_778
70
0
62
4
6
CONTINUOUS
0
ENDTAB
0
ENDSEC
0
SECTION
2
ENTITIES
0
LINE
8
DEFAULT_255_2_778
10
24.8046868
20
44.0283059
11
54.570311
21
44.0283059
0
LINE
8
DEFAULT_255_2_778
10
54.570311
20
44.0283059
11
54.570311
21
14.2626817
0
LINE
8
DEFAULT_255_2_778
10
54.570311
20
14.2626817
11
24.8046868
21
14.2626817
0
LINE
8
DEFAULT_255_2_778
10
24.8046868
20
14.2626817
11
24.8046868
21
44.0283059
0
LINE
8
DEFAULT_255_2_778
10
27.2851555
20
39.0673817
11
27.2851555
21
31.6259757
0
LINE
8
DEFAULT_255_2_778
10
31.0058585
20
38.2922353
11
31.0058585
21
32.4011221
0
LINE
8
DEFAULT_255_2_778
10
33.4863272
20
32.2460929
11
33.4863272
21
38.4472646
0
LINE
8
DEFAULT_255_2_778
10
32.3477905
20
39.6341672
11
37.0606809
21
35.3206306
0
LINE
8
DEFAULT_255_2_778
10
37.0606809
20
35.3206306
11
32.3477905
21
31.0046191
0
LINE
8
DEFAULT_255_2_778
10
32.3477905
20
31.0046191
11
27.6349
21
35.3181557
0
LINE
8
DEFAULT_255_2_778
10
27.6349
20
35.3181557
11
32.3477905
21
39.6341672
0
LINE
8
DEFAULT_255_2_778
10
39.6874989
20
61.3915999
11
39.6874989
21
44.0283191
0
LINE
8
DEFAULT_255_2_778
10
39.6874989
20
-1.8603515
11
39.6874989
21
14.2626949
0
ARC
8
0
10
39.6846032
20
14.2655737
40
1.237342
50
147.4067141
51
180.1339154
0
ARC
8
0
10
39.6841302
20
14.2660641
40
1.2366793
50
96.450986
51
147.4140532
0
ARC
8
0
10
39.6872135
20
14.2386429
40
1.2642733
50
89.9870646
51
96.4502109
0
ARC
8
0
10
39.6903913
20
14.2655786
40
1.2373408
50
57.4065107
51
90.1339356
0
ARC
8
0
10
39.6908785
20
14.2660492
40
1.236682
50
6.450958
51
57.4137841
0
ARC
8
0
10
39.6634821
20
14.2629669
40
1.2642513
50
359.9870721
51
6.4502643
0
ARC
8
0
10
39.6903946
20
14.2597897
40
1.237342
50
327.4067141
51
0.1339154
0
ARC
8
0
10
39.6908676
20
14.2592992
40
1.2366793
50
276.450986
51
327.4140532
0
ARC
8
0
10
39.6877843
20
14.2867205
40
1.2642733
50
269.9870646
51
276.4502109
0
ARC
8
0
10
39.6846065
20
14.2597848
40
1.2373408
50
237.4065107
51
270.1339356
0
ARC
8
0
10
39.6841192
20
14.2593142
40
1.236682
50
186.450958
51
237.4137841
0
ARC
8
0
10
39.7115157
20
14.2623964
40
1.2642513
50
179.9870721
51
186.4502643
0
LINE
8
DEFAULT_255_2_778
10
38.4472646
20
14.2626817
11
38.4472646
21
14.2626817
0
ARC
8
0
10
39.6846044
20
44.0312249
40
1.2373432
50
147.4067322
51
180.1339424
0
ARC
8
0
10
39.6841284
20
44.0317163
40
1.2366774
50
96.4509125
51
147.4140356
0
ARC
8
0
10
39.6872135
20
44.0042935
40
1.2642733
50
89.9870646
51
96.4502109
0
ARC
8
0
10
39.6903917
20
44.0312273
40
1.2373427
50
57.4065861
51
90.1339538
0
ARC
8
0
10
39.6908805
20
44.0317016
40
1.2366799
50
6.4509028
51
57.4138298
0
ARC
8
0
10
39.6634753
20
44.0286176
40
1.2642581
50
359.9870719
51
6.4502458
0
ARC
8
0
10
39.6903934
20
44.0254397
40
1.2373432
50
327.4067322
51
0.1339424
0
ARC
8
0
10
39.6908694
20
44.0249483
40
1.2366774
50
276.4509125
51
327.4140356
0
ARC
8
0
10
39.6877843
20
44.0523711
40
1.2642733
50
269.9870646
51
276.4502109
0
ARC
8
0
10
39.6846061
20
44.0254373
40
1.2373427
50
237.4065861
51
270.1339538
0
ARC
8
0
10
39.6841173
20
44.024963
40
1.2366799
50
186.4509028
51
237.4138298
0
ARC
8
0
10
39.7115225
20
44.0280471
40
1.2642581
50
179.9870719
51
186.4502458
0
LINE
8
DEFAULT_255_2_778
10
38.4472646
20
44.0283323
11
38.4472646
21
44.0283323
0
LINE
8
DEFAULT_4_2_778
10
36.586913
20
61.3916131
11
42.7880847
21
61.3916131
0
LINE
8
DEFAULT_4_2_778
10
39.6874989
20
64.4921923
11
39.6874989
21
61.3916065
0
LINE
8
DEFAULT_4_2_778
10
36.586913
20
-1.8603449
11
42.7880847
21
-1.8603449
0
LINE
8
DEFAULT_4_2_778
10
39.6874989
20
-1.8603449
11
39.6874989
21
-4.9609307
0
LINE
8
DEFAULT_255_2_778
10
50.2294908
20
32.4234347
11
49.4022521
21
33.486314
0
LINE
8
DEFAULT_255_2_778
10
49.4022521
20
33.486314
11
48.9892564
21
32.2460796
0
LINE
8
DEFAULT_255_2_778
10
48.9892564
20
32.2460796
11
50.2294908
21
32.4234347
0
LINE
8
DEFAULT_255_2_778
10
45.8886772
20
38.4472687
11
45.8886772
21
32.3974039
0
LINE
8
DEFAULT_255_2_778
10
44.0283257
20
35.3466828
11
45.8886772
21
35.3466828
0
LINE
8
DEFAULT_255_2_778
10
45.888664
20
36.5869064
11
50.2294842
21
38.4472579
0
LINE
8
DEFAULT_255_2_778
10
45.888664
20
34.1064377
11
49.609367
21
32.8662034
0
LINE
8
DEFAULT_255_2_778
10
47.1288983
20
26.6650317
11
47.1288983
21
23.9526368
0
LINE
8
DEFAULT_255_2_778
10
47.1288983
20
17.9833913
11
47.1288983
21
20.6957862
0
LINE
8
DEFAULT_255_2_778
10
47.1288983
20
20.6957862
11
45.888664
21
23.9514014
0
ENDSEC
0
EOF