0
SECTION
2
HEADER
0
ENDSEC
0
SECTION
2
TABLES
0
TABLE
2
LTYPE
0
LTYPE
72
65
70
64
2
CONTINUOUS
3
______
73
0
40
0
0
LTYPE
72
65
70
64
2
DASH_DEFAULT_255_2_778_064_085
3
______
73
2
40
2
49
-0.19921568073322585
49
0.2645833259738156
0
ENDTAB
0
TABLE
2
LAYER
0
LAYER
2
DEFAULT_255_2_778
70
0
62
255
6
CONTINUOUS
0
LAYER
2
DEFAULT_255_2_778_064_085
70
0
62
255
6
DASH_DEFAULT_255_2_778_064_085
0
LAYER
2
DEFAULT_4_2_778
70
0
62
4
6
CONTINUOUS
0
ENDTAB
0
ENDSEC
0
SECTION
2
ENTITIES
0
LINE
8
DEFAULT_255_2_778
10
43.0981367
20
16.1230464
11
43.0981367
21
-2.4804687
0
LINE
8
DEFAULT_255_2_778
10
43.0981367
20
59.5312483
11
43.0981367
21
37.2070302
0
LINE
8
DEFAULT_255_2_778_064_085
10
47.4389701
20
28.5253898
11
37.5170954
21
28.5253898
0
LINE
8
DEFAULT_255_2_778
10
30.6957933
20
32.2460929
11
30.6957933
21
34.7265615
0
ARC
8
0
10
30.9959024
20
32.9401436
40
7.9099704
50
303.5654409
51
326.0737591
0
ARC
8
0
10
30.8180939
20
33.1890543
40
8.2156917
50
289.6450558
51
303.6389451
0
ARC
8
0
10
30.755618
20
33.3612059
40
8.3988269
50
278.6101714
51
289.6516272
0
ARC
8
0
10
30.7205072
20
33.5912481
40
8.6315329
50
269.9759002
51
278.6119992
0
ARC
8
0
10
30.7124203
20
33.5741871
40
8.6144721
50
260.4485627
51
270.0296392
0
ARC
8
0
10
30.6727898
20
33.3367215
40
8.3737225
50
248.9994414
51
260.4463574
0
ARC
8
0
10
30.6077981
20
33.170096
40
8.1948731
50
234.5914088
51
249.0061533
0
ARC
8
0
10
30.438031
20
32.9441205
40
7.9123337
50
213.9494405
51
234.6452568
0
ARC
8
0
10
30.4536036
20
24.0929883
40
7.9328867
50
123.138291
51
146.0314657
0
ARC
8
0
10
30.6193663
20
23.8579053
40
8.2203568
50
109.2689748
51
123.2100192
0
ARC
8
0
10
30.6796199
20
23.6875565
40
8.4010467
50
98.1398838
51
109.2734939
0
ARC
8
0
10
30.7135368
20
23.4551526
40
8.6359116
50
89.9778418
51
98.1443222
0
ARC
8
0
10
30.721293
20
23.4750083
40
8.6160564
50
80.4494436
51
90.0293689
0
ARC
8
0
10
30.7607611
20
23.7113495
40
8.3764425
50
69.0026737
51
80.4474449
0
ARC
8
0
10
30.8269143
20
23.8807698
40
8.1945678
50
54.5933717
51
69.0100366
0
ARC
8
0
10
31.0024927
20
24.1144845
40
7.9023542
50
33.9297573
51
54.6491897
0
LINE
8
DEFAULT_255_2_778
10
37.5592539
20
28.5253898
11
37.5592539
21
28.5253898
0
LINE
8
DEFAULT_255_2_778
10
52.3999141
20
40.9277332
11
43.0981566
21
16.1230464
0
LINE
8
DEFAULT_255_2_778
10
43.0981367
20
37.2070302
11
55.5004801
21
37.2070302
0
LINE
8
DEFAULT_4_2_778
10
39.9975509
20
59.5312483
11
46.1987226
21
59.5312483
0
LINE
8
DEFAULT_4_2_778
10
43.0981367
20
62.6318408
11
43.0981367
21
59.531255
0
LINE
8
DEFAULT_4_2_778
10
39.9975509
20
-2.4804687
11
46.1987226
21
-2.4804687
0
LINE
8
DEFAULT_4_2_778
10
43.0981367
20
-5.5810611
11
43.0981367
21
-2.4804753
0
ENDSEC
0
EOF