0
SECTION
2
HEADER
0
ENDSEC
0
SECTION
2
TABLES
0
TABLE
2
LTYPE
0
LTYPE
72
65
70
64
2
CONTINUOUS
3
______
73
0
40
0
0
LTYPE
72
65
70
64
2
DASH_DEFAULT_255_2_778_064_085
3
______
73
2
40
2
49
-0.19921568073322585
49
0.2645833259738156
0
ENDTAB
0
TABLE
2
LAYER
0
LAYER
2
DEFAULT_255_2_778
70
0
62
255
6
CONTINUOUS
0
LAYER
2
DEFAULT_255_2_778_064_085
70
0
62
255
6
DASH_DEFAULT_255_2_778_064_085
0
LAYER
2
DEFAULT_4_2_778
70
0
62
4
6
CONTINUOUS
0
ENDTAB
0
ENDSEC
0
SECTION
2
ENTITIES
0
LINE
8
DEFAULT_255_2_778
10
50.539556
20
59.5312483
11
50.539556
21
40.9277332
0
LINE
8
DEFAULT_255_2_778
10
44.3383843
20
40.9277332
11
50.539556
21
16.1230464
0
LINE
8
DEFAULT_255_2_778
10
50.539556
20
16.1230464
11
50.539556
21
-2.4804687
0
ARC
8
0
10
31.9125209
20
28.5217855
40
6.2246857
50
347.7633502
51
0.033119
0
ARC
8
0
10
31.9762313
20
28.5108237
40
6.1601001
50
330.6030427
51
347.7373942
0
ARC
8
0
10
31.9222023
20
28.540377
40
6.2216788
50
290.0267913
51
330.6101567
0
ARC
8
0
10
31.9490858
20
28.4903881
40
6.1655116
50
275.8036151
51
289.9511586
0
ARC
8
0
10
31.9370597
20
28.5979737
40
6.2737618
50
269.9906317
51
275.8135285
0
ARC
8
0
10
31.9324358
20
28.5488965
40
6.2246857
50
257.7633502
51
270.033119
0
ARC
8
0
10
31.921474
20
28.4851862
40
6.1601001
50
240.6030427
51
257.7373942
0
ARC
8
0
10
31.9510273
20
28.5392152
40
6.2216788
50
200.0267913
51
240.6101567
0
ARC
8
0
10
31.9010384
20
28.5123317
40
6.1655116
50
185.8036151
51
199.9511586
0
ARC
8
0
10
32.008624
20
28.5243578
40
6.2737618
50
179.9906317
51
185.8135285
0
ARC
8
0
10
31.9801521
20
28.5379291
40
6.2453025
50
180.000928
51
180.1150956
0
ARC
8
0
10
31.9236261
20
28.5377973
40
6.1887764
50
137.1332028
51
179.999716
0
ARC
8
0
10
31.9279189
20
28.5334823
40
6.1948583
50
134.9999064
51
137.1309621
0
ARC
8
0
10
31.9236345
20
28.5377928
40
6.1887807
50
92.1330913
51
135.0000776
0
ARC
8
0
10
31.9235727
20
28.5324059
40
6.1941617
50
89.999776
51
92.1306649
0
ARC
8
0
10
31.923496
20
28.4888884
40
6.2376794
50
89.8848336
51
89.9990729
0
LINE
8
DEFAULT_255_2_778
10
31.9360339
20
34.7265553
11
31.9360339
21
28.5253836
0
LINE
8
DEFAULT_255_2_778
10
31.9360339
20
28.5253836
11
38.1372056
21
28.5253836
0
LINE
8
DEFAULT_255_2_778_064_085
10
38.1372192
20
28.5253898
11
47.4389768
21
28.5253898
0
LINE
8
DEFAULT_4_2_778
10
47.4389569
20
59.5312483
11
53.6401286
21
59.5312483
0
LINE
8
DEFAULT_4_2_778
10
50.5395428
20
62.6318408
11
50.5395428
21
59.531255
0
LINE
8
DEFAULT_4_2_778
10
47.4389569
20
-2.4804687
11
53.6401286
21
-2.4804687
0
LINE
8
DEFAULT_4_2_778
10
50.5395428
20
-5.5810611
11
50.5395428
21
-2.4804753
0
ENDSEC
0
EOF