0
SECTION
2
HEADER
0
ENDSEC
0
SECTION
2
TABLES
0
TABLE
2
LTYPE
0
LTYPE
72
65
70
64
2
CONTINUOUS
3
______
73
0
40
0
0
LTYPE
72
65
70
64
2
DASH_DEFAULT_255_2_778_064_085
3
______
73
2
40
2
49
-0.19921568073322585
49
0.2645833259738156
0
ENDTAB
0
TABLE
2
LAYER
0
LAYER
2
DEFAULT_255_2_778
70
0
62
255
6
CONTINUOUS
0
LAYER
2
DEFAULT_255_2_778_064_085
70
0
62
255
6
DASH_DEFAULT_255_2_778_064_085
0
LAYER
2
DEFAULT_4_2_778
70
0
62
4
6
CONTINUOUS
0
ENDTAB
0
ENDSEC
0
SECTION
2
ENTITIES
0
LINE
8
DEFAULT_255_2_778
10
50.539556
20
59.5312483
11
50.539556
21
40.9277332
0
LINE
8
DEFAULT_255_2_778
10
44.3383843
20
40.9277332
11
50.539556
21
16.1230464
0
LINE
8
DEFAULT_255_2_778
10
50.539556
20
16.1230464
11
50.539556
21
-2.4804687
0
LINE
8
DEFAULT_255_2_778_064_085
10
31.9360343
20
28.5253898
11
47.4389635
21
28.5253898
0
ARC
8
0
10
32.0067566
20
28.5294593
40
6.2719019
50
168.1624161
51
180.0371759
0
ARC
8
0
10
31.8988268
20
28.5499887
40
6.1620564
50
151.8357285
51
168.1433762
0
ARC
8
0
10
31.9262926
20
28.5343819
40
6.1936368
50
109.8829518
51
151.8283736
0
ARC
8
0
10
31.9185625
20
28.5380322
40
6.1875779
50
96.2170381
51
109.8271349
0
ARC
8
0
10
31.9346835
20
28.4029589
40
6.3236028
50
89.9878208
51
96.2297087
0
ARC
8
0
10
31.9400981
20
28.4546794
40
6.2718834
50
78.1623898
51
90.0371848
0
ARC
8
0
10
31.9606251
20
28.5625903
40
6.1620571
50
61.8357166
51
78.1433634
0
ARC
8
0
10
31.9450173
20
28.5351227
40
6.1936395
50
19.8829564
51
61.8283622
0
ARC
8
0
10
31.9486735
20
28.5428548
40
6.1875744
50
6.21704
51
19.8271405
0
ARC
8
0
10
31.8136037
20
28.526734
40
6.3235959
50
359.9878209
51
6.2297124
0
ARC
8
0
10
31.8653173
20
28.5213194
40
6.2718834
50
348.1623898
51
0.0371848
0
ARC
8
0
10
31.9732281
20
28.5007924
40
6.1620571
50
331.8357166
51
348.1433634
0
ARC
8
0
10
31.9457605
20
28.5164002
40
6.1936395
50
289.8829564
51
331.8283622
0
ARC
8
0
10
31.9534927
20
28.512744
40
6.1875744
50
276.21704
51
289.8271405
0
ARC
8
0
10
31.9373718
20
28.6478138
40
6.3235959
50
269.9878209
51
276.2297124
0
ARC
8
0
10
31.931957
20
28.5961041
40
6.2718873
50
258.1623932
51
270.0371863
0
ARC
8
0
10
31.9114287
20
28.4881893
40
6.1620568
50
241.8357214
51
258.1433717
0
ARC
8
0
10
31.9270361
20
28.5156551
40
6.1936373
50
199.882945
51
241.828362
0
ARC
8
0
10
31.923395
20
28.5079271
40
6.1875878
50
186.2170476
51
199.8271179
0
ARC
8
0
10
32.0584516
20
28.5240456
40
6.3235959
50
179.9878209
51
186.2297124
0
LINE
8
DEFAULT_255_2_778
10
25.734856
20
28.5253898
11
25.734856
21
28.5253898
0
LINE
8
DEFAULT_4_2_778
10
47.4389569
20
59.5312483
11
53.6401286
21
59.5312483
0
LINE
8
DEFAULT_4_2_778
10
50.5395428
20
62.6318408
11
50.5395428
21
59.531255
0
LINE
8
DEFAULT_4_2_778
10
47.4389569
20
-2.4804687
11
53.6401286
21
-2.4804687
0
LINE
8
DEFAULT_4_2_778
10
50.5395428
20
-5.5810611
11
50.5395428
21
-2.4804753
0
ENDSEC
0
EOF