0
SECTION
2
HEADER
0
ENDSEC
0
SECTION
2
TABLES
0
TABLE
2
LTYPE
0
LTYPE
72
65
70
64
2
CONTINUOUS
3
______
73
0
40
0
0
LTYPE
72
65
70
64
2
DASH_DEFAULT_255_2_778_064_085
3
______
73
2
40
2
49
-0.19921568073322585
49
0.2645833259738156
0
ENDTAB
0
TABLE
2
LAYER
0
LAYER
2
DEFAULT_255_2_778
70
0
62
255
6
CONTINUOUS
0
LAYER
2
DEFAULT_255_2_778_064_085
70
0
62
255
6
DASH_DEFAULT_255_2_778_064_085
0
LAYER
2
DEFAULT_4_2_778
70
0
62
4
6
CONTINUOUS
0
ENDTAB
0
ENDSEC
0
SECTION
2
ENTITIES
0
LINE
8
DEFAULT_255_2_778
10
44.6484363
20
16.1230332
11
52.0898423
21
16.1230332
0
LINE
8
DEFAULT_255_2_778
10
52.0898423
20
16.1230332
11
52.0898423
21
-2.4804819
0
LINE
8
DEFAULT_255_2_778
10
27.2851555
20
-2.4804819
11
27.2851555
21
16.1230332
0
ARC
8
0
10
37.1835235
20
28.5217855
40
6.2246857
50
347.7633502
51
0.033119
0
ARC
8
0
10
37.2472339
20
28.5108237
40
6.1601001
50
330.6030427
51
347.7373942
0
ARC
8
0
10
37.1932049
20
28.540377
40
6.2216788
50
290.0267913
51
330.6101567
0
ARC
8
0
10
37.2200884
20
28.4903881
40
6.1655116
50
275.8036151
51
289.9511586
0
ARC
8
0
10
37.2080623
20
28.5979737
40
6.2737618
50
269.9906317
51
275.8135285
0
ARC
8
0
10
37.2034384
20
28.5488965
40
6.2246857
50
257.7633502
51
270.033119
0
ARC
8
0
10
37.1924766
20
28.4851862
40
6.1601001
50
240.6030427
51
257.7373942
0
ARC
8
0
10
37.2220299
20
28.5392152
40
6.2216788
50
200.0267913
51
240.6101567
0
ARC
8
0
10
37.172041
20
28.5123317
40
6.1655116
50
185.8036151
51
199.9511586
0
ARC
8
0
10
37.2796265
20
28.5243578
40
6.2737618
50
179.9906317
51
185.8135285
0
ARC
8
0
10
37.2511547
20
28.5379291
40
6.2453025
50
180.000928
51
180.1150956
0
ARC
8
0
10
37.1946286
20
28.5377973
40
6.1887764
50
137.1332028
51
179.999716
0
ARC
8
0
10
37.1989214
20
28.5334823
40
6.1948583
50
134.9999064
51
137.1309621
0
ARC
8
0
10
37.1946386
20
28.5377896
40
6.188784
50
92.1331013
51
135.0000662
0
ARC
8
0
10
37.1945753
20
28.5324128
40
6.1941548
50
89.9997761
51
92.1306649
0
ARC
8
0
10
37.1944985
20
28.488896
40
6.2376718
50
89.8848336
51
89.9990729
0
LINE
8
DEFAULT_255_2_778
10
37.2070365
20
34.7265553
11
37.2070365
21
28.5253836
0
LINE
8
DEFAULT_255_2_778
10
37.2070365
20
28.5253836
11
43.4082082
21
28.5253836
0
LINE
8
DEFAULT_255_2_778_064_085
10
49.6093868
20
28.5253898
11
43.4082151
21
28.5253898
0
LINE
8
DEFAULT_255_2_778
10
52.0898373
20
59.5312351
11
52.0898373
21
40.92772
0
LINE
8
DEFAULT_255_2_778
10
52.0898373
20
40.92772
11
46.0436949
21
11.1620958
0
LINE
8
DEFAULT_4_2_778
10
48.9892564
20
59.5312483
11
55.1904282
21
59.5312483
0
LINE
8
DEFAULT_4_2_778
10
52.0898423
20
62.6318408
11
52.0898423
21
59.531255
0
LINE
8
DEFAULT_4_2_778
10
48.9892564
20
-2.4804687
11
55.1904282
21
-2.4804687
0
LINE
8
DEFAULT_4_2_778
10
52.0898423
20
-5.5810611
11
52.0898423
21
-2.4804753
0
LINE
8
DEFAULT_4_2_778
10
24.1845696
20
-2.4804687
11
30.3857413
21
-2.4804687
0
LINE
8
DEFAULT_4_2_778
10
27.2851555
20
-5.5810611
11
27.2851555
21
-2.4804753
0
ENDSEC
0
EOF