0
SECTION
2
HEADER
0
ENDSEC
0
SECTION
2
TABLES
0
TABLE
2
LTYPE
0
LTYPE
72
65
70
64
2
CONTINUOUS
3
______
73
0
40
0
0
ENDTAB
0
TABLE
2
LAYER
0
LAYER
2
DEFAULT_255_2_778
70
0
62
255
6
CONTINUOUS
0
LAYER
2
DEFAULT_4_2_778
70
0
62
4
6
CONTINUOUS
0
ENDTAB
0
ENDSEC
0
SECTION
2
ENTITIES
0
LINE
8
DEFAULT_255_2_778
10
44.3383777
20
40.92772
11
35.0366201
21
16.1230332
0
LINE
8
DEFAULT_255_2_778
10
35.0366201
20
16.1230332
11
35.0366201
21
-2.4804819
0
LINE
8
DEFAULT_255_2_778
10
35.0366267
20
59.5312483
11
35.0366267
21
37.2070302
0
LINE
8
DEFAULT_255_2_778
10
35.0366267
20
37.2070302
11
47.4389701
21
37.2070302
0
LINE
8
DEFAULT_255_2_778
10
41.2377984
20
32.2460929
11
35.0366267
21
33.4863272
0
LINE
8
DEFAULT_255_2_778
10
35.0366267
20
33.4863272
11
36.2768611
21
19.8437494
0
LINE
8
DEFAULT_4_2_778
10
31.9360409
20
59.5312483
11
38.1372126
21
59.5312483
0
LINE
8
DEFAULT_4_2_778
10
35.0366267
20
62.6318408
11
35.0366267
21
59.531255
0
LINE
8
DEFAULT_4_2_778
10
31.9360409
20
-2.4804687
11
38.1372126
21
-2.4804687
0
LINE
8
DEFAULT_4_2_778
10
35.0366267
20
-5.5810611
11
35.0366267
21
-2.4804753
0
ENDSEC
0
EOF