0
SECTION
2
HEADER
0
ENDSEC
0
SECTION
2
TABLES
0
TABLE
2
LTYPE
0
LTYPE
72
65
70
64
2
CONTINUOUS
3
______
73
0
40
0
0
LTYPE
72
65
70
64
2
DASH_DEFAULT_255_2_778_064_085
3
______
73
2
40
2
49
-0.19921568073322585
49
0.2645833259738156
0
ENDTAB
0
TABLE
2
LAYER
0
LAYER
2
DEFAULT_255_2_778
70
0
62
255
6
CONTINUOUS
0
LAYER
2
DEFAULT_255_2_778_064_085
70
0
62
255
6
DASH_DEFAULT_255_2_778_064_085
0
LAYER
2
DEFAULT_4_2_778
70
0
62
4
6
CONTINUOUS
0
ENDTAB
0
ENDSEC
0
SECTION
2
ENTITIES
0
LINE
8
DEFAULT_255_2_778
10
52.0898489
20
40.92772
11
42.7880914
21
16.1230332
0
LINE
8
DEFAULT_255_2_778
10
42.7880914
20
16.1230332
11
42.7880914
21
-2.4804819
0
LINE
8
DEFAULT_255_2_778
10
42.788098
20
59.5312483
11
42.788098
21
37.2070302
0
LINE
8
DEFAULT_255_2_778
10
42.788098
20
37.2070302
11
55.1904414
21
37.2070302
0
LINE
8
DEFAULT_255_2_778_064_085
10
47.1288983
20
28.5253898
11
36.5869064
21
28.5253898
0
LINE
8
DEFAULT_255_2_778
10
24.1845829
20
34.7265615
11
36.5869263
21
34.7265615
0
LINE
8
DEFAULT_255_2_778
10
36.5869263
20
34.7265615
11
36.5869263
21
22.3242181
0
LINE
8
DEFAULT_255_2_778
10
36.5869263
20
22.3242181
11
24.1845829
21
22.3242181
0
LINE
8
DEFAULT_255_2_778
10
24.1845829
20
22.3242181
11
24.1845829
21
34.7265615
0
ARC
8
0
10
30.4014944
20
28.5291573
40
3.1163279
50
162.2115662
51
180.0692683
0
ARC
8
0
10
30.3796554
20
28.531384
40
3.0948563
50
106.233035
51
162.1272995
0
ARC
8
0
10
30.38247
20
28.5049641
40
3.1210133
50
89.9397024
51
106.1470628
0
ARC
8
0
10
30.3895233
20
28.509655
40
3.116323
50
72.211574
51
90.0692906
0
ARC
8
0
10
30.3917488
20
28.5314889
40
3.0948563
50
16.2330519
51
72.1273159
0
ARC
8
0
10
30.3653261
20
28.5286747
40
3.1210159
50
359.9396964
51
16.1470567
0
ARC
8
0
10
30.3700148
20
28.5216223
40
3.1163279
50
342.2115662
51
0.0692683
0
ARC
8
0
10
30.3918538
20
28.5193957
40
3.0948563
50
286.233035
51
342.1272995
0
ARC
8
0
10
30.3890391
20
28.5458156
40
3.1210133
50
269.9397024
51
286.1470628
0
ARC
8
0
10
30.3819858
20
28.5411247
40
3.116323
50
252.211574
51
270.0692906
0
ARC
8
0
10
30.3797604
20
28.5192908
40
3.0948563
50
196.2330519
51
252.1273159
0
ARC
8
0
10
30.4061831
20
28.522105
40
3.1210159
50
179.9396964
51
196.1470567
0
LINE
8
DEFAULT_255_2_778
10
27.2851687
20
28.5253898
11
27.2851687
21
28.5253898
0
LINE
8
DEFAULT_255_2_778
10
32.86621
20
37.207017
11
33.4863272
21
40.92772
0
LINE
8
DEFAULT_255_2_778
10
33.4863272
20
39.6874857
11
34.4165029
21
40.92772
0
LINE
8
DEFAULT_255_2_778
10
34.4165029
20
40.92772
11
35.9667959
21
40.92772
0
LINE
8
DEFAULT_255_2_778
10
35.9667959
20
40.92772
11
36.586913
21
39.6874857
0
LINE
8
DEFAULT_255_2_778
10
36.586913
20
39.6874857
11
36.2768545
21
37.207017
0
LINE
8
DEFAULT_4_2_778
10
39.6875121
20
59.5312483
11
45.8886838
21
59.5312483
0
LINE
8
DEFAULT_4_2_778
10
42.788098
20
62.6318408
11
42.788098
21
59.531255
0
LINE
8
DEFAULT_4_2_778
10
39.6875121
20
-2.4804687
11
45.8886838
21
-2.4804687
0
LINE
8
DEFAULT_4_2_778
10
42.788098
20
-5.5810611
11
42.788098
21
-2.4804753
0
ENDSEC
0
EOF