0
SECTION
2
HEADER
0
ENDSEC
0
SECTION
2
TABLES
0
TABLE
2
LTYPE
0
LTYPE
72
65
70
64
2
CONTINUOUS
3
______
73
0
40
0
0
LTYPE
72
65
70
64
2
DASH_DEFAULT_255_2_778_064_085
3
______
73
2
40
2
49
-0.19921568073322585
49
0.2645833259738156
0
ENDTAB
0
TABLE
2
LAYER
0
LAYER
2
DEFAULT_255_2_778
70
0
62
255
6
CONTINUOUS
0
LAYER
2
DEFAULT_255_2_778_064_085
70
0
62
255
6
DASH_DEFAULT_255_2_778_064_085
0
LAYER
2
DEFAULT_4_2_778
70
0
62
4
6
CONTINUOUS
0
ENDTAB
0
ENDSEC
0
SECTION
2
ENTITIES
0
LINE
8
DEFAULT_255_2_778
10
61.3915932
20
40.92772
11
52.0898357
21
16.1230332
0
LINE
8
DEFAULT_255_2_778
10
52.0898357
20
16.1230332
11
52.0898357
21
-2.4804819
0
LINE
8
DEFAULT_255_2_778
10
52.0898423
20
59.5312483
11
52.0898423
21
37.2070302
0
LINE
8
DEFAULT_255_2_778
10
52.0898423
20
37.2070302
11
64.4921857
21
37.2070302
0
LINE
8
DEFAULT_255_2_778_064_085
10
56.4306691
20
28.5253898
11
45.8886772
21
28.5253898
0
LINE
8
DEFAULT_255_2_778
10
33.4863272
20
34.7265615
11
45.8886706
21
34.7265615
0
LINE
8
DEFAULT_255_2_778
10
45.8886706
20
34.7265615
11
45.8886706
21
22.3242181
0
LINE
8
DEFAULT_255_2_778
10
45.8886706
20
22.3242181
11
33.4863272
21
22.3242181
0
LINE
8
DEFAULT_255_2_778
10
33.4863272
20
22.3242181
11
33.4863272
21
34.7265615
0
ARC
8
0
10
39.7032466
20
28.529158
40
3.1163358
50
162.2116247
51
180.06928
0
ARC
8
0
10
39.6813933
20
28.5313907
40
3.0948487
50
106.232995
51
162.1273842
0
ARC
8
0
10
39.6842138
20
28.5049528
40
3.1210246
50
89.9396923
51
106.1470338
0
ARC
8
0
10
39.6912669
20
28.5096649
40
3.116313
50
72.2115453
51
90.0692774
0
ARC
8
0
10
39.6934868
20
28.5314824
40
3.0948637
50
16.2331372
51
72.1272823
0
ARC
8
0
10
39.6670801
20
28.528674
40
3.1210063
50
359.9397091
51
16.1471211
0
ARC
8
0
10
39.6717748
20
28.5216211
40
3.1163122
50
342.2114963
51
0.0692913
0
ARC
8
0
10
39.6935921
20
28.5194021
40
3.0948634
50
286.2330697
51
342.1272167
0
ARC
8
0
10
39.6907832
20
28.5458015
40
3.1209992
50
269.9397069
51
286.147101
0
ARC
8
0
10
39.6837297
20
28.5411372
40
3.1163355
50
252.2116117
51
270.0692983
0
ARC
8
0
10
39.6814988
20
28.5192849
40
3.0948496
50
196.2329758
51
252.1273462
0
ARC
8
0
10
39.7079369
20
28.5221056
40
3.1210256
50
179.939709
51
196.1470178
0
LINE
8
DEFAULT_255_2_778
10
36.586913
20
28.5253898
11
36.586913
21
28.5253898
0
ARC
8
0
10
21.0398593
20
28.5128505
40
6.2453025
50
0.000928
51
0.1150956
0
ARC
8
0
10
21.0963854
20
28.5129824
40
6.1887764
50
317.1332028
51
359.999716
0
ARC
8
0
10
21.0920926
20
28.5172974
40
6.1948583
50
314.9999064
51
317.1309621
0
ARC
8
0
10
21.0963854
20
28.5129675
40
6.188761
50
272.1330196
51
315.0001493
0
ARC
8
0
10
21.0964388
20
28.5183737
40
6.1941617
50
269.999776
51
272.1306649
0
ARC
8
0
10
21.0965155
20
28.5618913
40
6.2376794
50
269.8848336
51
269.9990729
0
ARC
8
0
10
21.0803795
20
28.548909
40
6.2246857
50
257.7633502
51
270.033119
0
ARC
8
0
10
21.0694176
20
28.4851987
40
6.1601001
50
240.6030427
51
257.7373942
0
ARC
8
0
10
21.0989709
20
28.5392276
40
6.2216788
50
200.0267913
51
240.6101567
0
ARC
8
0
10
21.048982
20
28.5123442
40
6.1655116
50
185.8036151
51
199.9511586
0
ARC
8
0
10
21.1565676
20
28.5243703
40
6.2737618
50
179.9906317
51
185.8135285
0
ARC
8
0
10
21.1074905
20
28.5289942
40
6.2246857
50
167.7633502
51
180.033119
0
ARC
8
0
10
21.0437801
20
28.539956
40
6.1601001
50
150.6030427
51
167.7373942
0
ARC
8
0
10
21.0978091
20
28.5104027
40
6.2216788
50
110.0267913
51
150.6101567
0
ARC
8
0
10
21.0709256
20
28.5603916
40
6.1655116
50
95.8036151
51
109.9511586
0
ARC
8
0
10
21.0829517
20
28.452806
40
6.2737618
50
89.9906317
51
95.8135285
0
LINE
8
DEFAULT_255_2_778
10
21.0839775
20
34.7265678
11
21.0839775
21
28.5253961
0
LINE
8
DEFAULT_255_2_778
10
21.0839775
20
28.5253961
11
27.2851492
21
28.5253961
0
LINE
8
DEFAULT_255_2_778_064_085
10
33.4863404
20
28.5253898
11
27.2851687
21
28.5253898
0
LINE
8
DEFAULT_255_2_778
10
42.1679808
20
37.207017
11
42.788098
21
40.92772
0
LINE
8
DEFAULT_255_2_778
10
42.788098
20
39.6874857
11
43.7182737
21
40.92772
0
LINE
8
DEFAULT_255_2_778
10
43.7182737
20
40.92772
11
45.2685667
21
40.92772
0
LINE
8
DEFAULT_255_2_778
10
45.2685667
20
40.92772
11
45.8886838
21
39.6874857
0
LINE
8
DEFAULT_255_2_778
10
45.8886838
20
39.6874857
11
45.5786252
21
37.207017
0
LINE
8
DEFAULT_4_2_778
10
48.9892564
20
59.5312483
11
55.1904282
21
59.5312483
0
LINE
8
DEFAULT_4_2_778
10
52.0898423
20
62.6318408
11
52.0898423
21
59.531255
0
LINE
8
DEFAULT_4_2_778
10
48.9892564
20
-2.4804687
11
55.1904282
21
-2.4804687
0
LINE
8
DEFAULT_4_2_778
10
52.0898423
20
-5.5810611
11
52.0898423
21
-2.4804753
0
ENDSEC
0
EOF