0
SECTION
2
HEADER
0
ENDSEC
0
SECTION
2
TABLES
0
TABLE
2
LTYPE
0
LTYPE
72
65
70
64
2
CONTINUOUS
3
______
73
0
40
0
0
ENDTAB
0
TABLE
2
LAYER
0
LAYER
2
DEFAULT_255_2_778
70
0
62
255
6
CONTINUOUS
0
LAYER
2
DEFAULT_4_2_778
70
0
62
4
6
CONTINUOUS
0
ENDTAB
0
ENDSEC
0
SECTION
2
ENTITIES
0
LINE
8
DEFAULT_255_2_778
10
20.3794778
20
53.3300766
11
20.3794778
21
-8.6816404
0
ARC
8
0
10
8.6433357
20
51.406505
40
33.3001211
50
302.1324234
51
303.1101675
0
ARC
8
0
10
3.5870125
20
59.1704546
40
42.5653947
50
303.1023931
51
303.8287207
0
ARC
8
0
10
-1.65226
20
66.9954946
40
51.982465
50
303.8243097
51
304.3805447
0
ARC
8
0
10
-8.2239108
20
76.5923578
40
63.6137316
50
304.3845044
51
305.0226242
0
ARC
8
0
10
-16.7018264
20
88.6961515
40
78.3913113
50
305.0200046
51
305.5462481
0
ARC
8
0
10
-25.7216529
20
101.3270164
40
93.9121361
50
305.5437296
51
305.9602604
0
ARC
8
0
10
-35.9871898
20
115.4747777
40
111.39185
50
305.9609147
51
306.3791282
0
ARC
8
0
10
-47.2285552
20
130.7427071
40
130.3517535
50
306.3768138
51
306.6906468
0
ARC
8
0
10
-58.597418
20
146.0018742
40
149.3805007
50
306.6903099
51
306.9768776
0
LINE
8
0
10
31.2538591
20
26.6650317
11
63.5619636
21
26.5211653
0
LINE
8
0
10
63.5619636
20
26.5211653
11
63.5619636
21
12.4023368
0
ARC
8
0
10
-2573.653512
20
-576756.3222278
40
576774.7537309
50
89.7380228
51
89.7382033
0
ARC
8
0
10
-2316.4221456
20
-520449.6571191
40
520467.5010574
50
89.7381981
51
89.7383929
0
ARC
8
0
10
-2013.6578256
20
-454107.1187731
40
454124.2718597
50
89.7383738
51
89.7385906
0
ARC
8
0
10
-2053.0811465
20
-462724.163819
40
462741.407086
50
89.7385772
51
89.738777
0
ARC
8
0
10
-1876.8550328
20
-424073.8925381
40
424090.7340552
50
89.7387784
51
89.7389832
0
ARC
8
0
10
-1741.6191206
20
-394398.2140966
40
394414.7474714
50
89.7389896
51
89.7391964
0
ARC
8
0
10
-1392.2159462
20
-317639.8988917
40
317655.6370304
50
89.7391975
51
89.7394387
0
ARC
8
0
10
-1289.7890619
20
-295092.2935046
40
295107.7989979
50
89.7394168
51
89.7396607
0
ARC
8
0
10
-1181.3564607
20
-271209.5689035
40
271224.8282448
50
89.7396425
51
89.7398918
0
ARC
8
0
10
-1054.4306143
20
-243242.3047923
40
243257.2761166
50
89.7398825
51
89.7401435
0
ARC
8
0
10
-1088.9676528
20
-250855.5986044
40
250870.6482655
50
89.7401417
51
89.7403795
0
ARC
8
0
10
-897.3934467
20
-208571.1089689
40
208585.724659
50
89.7403718
51
89.7406404
0
ARC
8
0
10
-842.1446132
20
-196366.1849091
40
196380.6755505
50
89.7406406
51
89.7409086
0
ARC
8
0
10
-741.7727197
20
-174160.3579249
40
174174.6217237
50
89.7408943
51
89.7411782
0
ARC
8
0
10
-744.2565492
20
-174712.4595014
40
174726.7288873
50
89.7411815
51
89.7414474
0
ARC
8
0
10
-605.228244
20
-143902.7512249
40
143916.7069309
50
89.7414457
51
89.7418971
0
ARC
8
0
10
-516.3811316
20
-124172.5622185
40
124186.3178815
50
89.7418819
51
89.7423579
0
ARC
8
0
10
-467.7405885
20
-113354.0859132
40
113367.7322313
50
89.7423543
51
89.7428289
0
ARC
8
0
10
-394.1594777
20
-96960.2481097
40
96973.7293001
50
89.7428272
51
89.7433322
0
ARC
8
0
10
-316.0898273
20
-79530.0405859
40
79543.3469407
50
89.7433229
51
89.7439743
0
ARC
8
0
10
-265.1790892
20
-68126.4836513
40
68139.6763623
50
89.7439353
51
89.7446873
0
ARC
8
0
10
-222.8424696
20
-58620.5808396
40
58633.6792733
50
89.7446654
51
89.7454631
0
ARC
8
0
10
-187.6931184
20
-50713.448074
40
50726.4683838
50
89.7454875
51
89.7463005
0
ARC
8
0
10
-147.7842405
20
-41704.8861401
40
41717.8180502
50
89.7463275
51
89.7471993
0
ARC
8
0
10
-111.9719971
20
-33589.5672288
40
33602.4201212
50
89.7472088
51
89.7481636
0
ARC
8
0
10
-86.5373653
20
-27798.7002214
40
27811.4972573
50
89.7481253
51
89.7491431
0
ARC
8
0
10
-64.4750014
20
-22758.6174782
40
22771.3662265
50
89.7491314
51
89.7502284
0
ARC
8
0
10
-46.6530331
20
-18665.906921
40
18678.6168662
50
89.7501681
51
89.7519124
0
ARC
8
0
10
-26.3169612
20
-13967.6951521
40
13980.3610855
50
89.7518835
51
89.7538114
0
ARC
8
0
10
-12.0624963
20
-10647.0681795
40
10659.7035181
50
89.7537378
51
89.7561615
0
ARC
8
0
10
0.9202821
20
-7595.9601228
40
7608.5678398
50
89.7561453
51
89.7592325
0
ARC
8
0
10
10.3381708
20
-5355.2750243
40
5367.8629491
50
89.7592545
51
89.7626504
0
ARC
8
0
10
16.8562525
20
-3782.9804961
40
3795.5549103
50
89.7627224
51
89.766456
0
ARC
8
0
10
22.3291226
20
-2439.5072333
40
2452.0705003
50
89.7663786
51
89.7729359
0
ARC
8
0
10
26.7803919
20
-1315.4044372
40
1327.9588911
50
89.772781
51
89.782873
0
ARC
8
0
10
29.2481725
20
-663.7816764
40
676.3314573
50
89.7827368
51
89.7956826
0
ARC
8
0
10
30.588283
20
-286.4398163
40
298.9872175
50
89.7946284
51
89.8197044
0
ARC
8
0
10
31.2102799
20
-88.1317195
40
100.6781453
50
89.8185484
51
89.8617053
0
ARC
8
0
10
31.3974388
20
-8.8048317
40
21.3510374
50
89.8501325
51
89.9726119
0
ARC
8
0
10
-21.8700361
20
-86.4604165
40
112.4314103
50
61.7143095
51
62.0308315
0
ARC
8
0
10
-29.6836408
20
-101.183003
40
129.0989524
50
62.032546
51
62.4114103
0
ARC
8
0
10
-39.7633649
20
-120.4741659
40
150.8647467
50
62.4115991
51
62.7815406
0
ARC
8
0
10
-49.7688897
20
-139.9119487
40
172.7265371
50
62.7791974
51
63.0327038
0
ARC
8
0
10
-60.4682062
20
-160.950236
40
196.3291828
50
63.0340316
51
63.3395466
0
ARC
8
0
10
-73.4173738
20
-186.7360903
40
225.1838397
50
63.3389721
51
63.6078187
0
ARC
8
0
10
-82.4127738
20
-204.8381812
40
245.3977656
50
63.6051996
51
63.6898353
0
LINE
8
0
10
26.3549334
20
15.1382929
11
26.3549334
21
23.2060214
0
LINE
8
DEFAULT_255_2_778
10
26.3549334
20
23.2060214
11
26.3549334
21
23.2072608
0
ARC
8
0
10
32.0068815
20
19.2858304
40
1.7514077
50
152.6819063
51
180.0869429
0
ARC
8
0
10
32.0665315
20
19.2464225
40
1.8225065
50
106.1583389
51
152.4417939
0
ARC
8
0
10
32.0900098
20
19.1797685
40
1.8930654
50
89.9317092
51
106.2794482
0
ARC
8
0
10
32.0960365
20
19.1926607
40
1.8801756
50
67.0520635
51
90.1148958
0
ARC
8
0
10
32.141126
20
19.2728596
40
1.7887728
50
4.8490071
51
67.3804442
0
ARC
8
0
10
32.144953
20
19.2833758
40
1.7840993
50
359.9934775
51
4.5228776
0
ARC
8
0
10
32.1776584
20
19.2805138
40
1.751396
50
332.6818802
51
0.0869849
0
ARC
8
0
10
32.1180061
20
19.3199232
40
1.8224975
50
286.1582329
51
332.4417607
0
ARC
8
0
10
32.0945232
20
19.386592
40
1.8930722
50
269.9316873
51
286.279354
0
ARC
8
0
10
32.088496
20
19.3737061
40
1.8801888
50
247.0522054
51
270.1148897
0
ARC
8
0
10
32.0433958
20
19.2934905
40
1.7887666
50
184.8491553
51
247.380702
0
ARC
8
0
10
32.0395628
20
19.2829696
40
1.7840869
50
179.9934775
51
184.5228905
0
LINE
8
DEFAULT_255_2_778
10
30.2554758
20
19.2831727
11
30.2554758
21
19.2831727
0
ARC
8
0
10
22.6556179
20
18.1809072
40
13.7905545
50
117.4573614
51
119.7474999
0
ARC
8
0
10
22.3201933
20
18.8263989
40
13.0631144
50
115.124504
51
117.4573102
0
ARC
8
0
10
22.0246322
20
19.4573009
40
12.3664124
50
112.606309
51
115.1257796
0
ARC
8
0
10
21.7658984
20
20.0789379
40
11.6930805
50
109.9867614
51
112.606802
0
ARC
8
0
10
21.5506115
20
20.6706802
40
11.0633921
50
107.3525874
51
109.9864447
0
ARC
8
0
10
21.3718714
20
21.2435295
40
10.4633051
50
104.5285984
51
107.3539438
0
ARC
8
0
10
21.2332642
20
21.7767973
40
9.9123185
50
101.9211902
51
104.5263004
0
ARC
8
0
10
21.1271706
20
22.2810624
40
9.3970139
50
99.0434196
51
101.9233765
0
ARC
8
0
10
21.0443122
20
22.8041027
40
8.8674512
50
95.8708578
51
99.0459042
0
ARC
8
0
10
20.9907447
20
23.3258675
40
8.3429439
50
92.6105439
51
95.8714281
0
ARC
8
0
10
20.9694206
20
23.774383
40
7.8939226
50
90.0105911
51
92.6042041
0
ARC
8
0
10
20.9725174
20
24.3018208
40
7.3664863
50
85.271479
51
90.0354358
0
ARC
8
0
10
21.027101
20
24.956294
40
6.7097411
50
80.2406729
51
85.2752922
0
ARC
8
0
10
21.1355714
20
25.5847945
40
6.0719492
50
74.9815902
51
80.244104
0
ARC
8
0
10
21.3007329
20
26.196482
40
5.4383571
50
69.110365
51
74.9922705
0
ARC
8
0
10
21.5264416
20
26.7857687
40
4.8073241
50
62.7218572
51
69.1193197
0
ARC
8
0
10
21.8120943
20
27.3367206
40
4.1867249
50
55.3577655
51
62.7407264
0
ARC
8
0
10
22.1524892
20
27.8273175
40
3.589605
50
46.9239089
51
55.3764234
0
ARC
8
0
10
22.5276401
20
28.2263351
40
3.0419275
50
36.7779818
51
46.9523741
0
ARC
8
0
10
22.9222943
20
28.5175556
40
2.5514679
50
22.613969
51
36.8460074
0
ARC
8
0
10
23.2427098
20
28.65057
40
2.2045405
50
0.0971544
51
22.6248462
0
ARC
8
0
10
23.2661568
20
28.6543748
40
2.1810905
50
357.1501754
51
359.9982508
0
ARC
8
0
10
23.250358
20
28.6550912
40
2.1969054
50
356.2049143
51
357.1519993
0
ARC
8
0
10
18.3013268
20
28.8574627
40
7.1495827
50
354.2736886
51
357.2118303
0
ARC
8
0
10
19.3558712
20
28.7510115
40
6.0896793
50
350.8716454
51
354.280285
0
ARC
8
0
10
20.2496405
20
28.6068969
40
5.1843659
50
346.9752708
51
350.8771255
0
ARC
8
0
10
20.9938582
20
28.4339763
40
4.4203233
50
342.3259875
51
346.9849446
0
ARC
8
0
10
21.5938648
20
28.2422533
40
3.7904302
50
336.8042352
51
342.333711
0
ARC
8
0
10
22.0413954
20
28.0501663
40
3.3034179
50
330.161903
51
336.8092464
0
ARC
8
0
10
22.3264845
20
27.8870087
40
2.9749425
50
322.0567426
51
330.1557831
0
ARC
8
0
10
22.4157863
20
27.8204117
40
2.8635691
50
310.7224073
51
322.0089193
0
ARC
8
0
10
22.0040548
20
28.3639423
40
3.5443666
50
290.7461674
51
310.0344953
0
ARC
8
0
10
21.0421431
20
30.7456589
40
6.112642
50
284.243963
51
291.2698469
0
ARC
8
0
10
19.5606343
20
36.6014027
40
12.1528896
50
280.1624387
51
284.221097
0
ARC
8
0
10
14.4736332
20
64.1612181
40
40.1781405
50
279.6217192
51
280.368579
0
ARC
8
0
10
-63.6056149
20
519.4974809
40
502.1601964
50
279.7138526
51
279.7215381
0
ARC
8
0
10
25.1873592
20
-0.1874025
40
25.0561899
50
99.3358429
51
101.6132113
0
ARC
8
0
10
21.8586462
20
16.1053629
40
8.4268954
50
101.7439248
51
106.7432229
0
ARC
8
0
10
20.8380574
20
19.486354
40
4.8952268
50
106.7044186
51
115.0327422
0
ARC
8
0
10
20.0351278
20
21.1423415
40
3.0551617
50
114.5301495
51
137.3862851
0
ARC
8
0
10
19.8407472
20
21.3610229
40
2.764207
50
137.9942312
51
147.4689663
0
ARC
8
0
10
20.0528939
20
21.2268185
40
3.0152374
50
147.4867416
51
154.9955878
0
ARC
8
0
10
20.4270018
20
21.0514788
40
3.4283962
50
154.9826346
51
160.722318
0
ARC
8
0
10
20.9403051
20
20.8718533
40
3.9722211
50
160.7210435
51
165.7534308
0
ARC
8
0
10
21.598028
20
20.7038255
40
4.651067
50
165.7411402
51
169.8570972
0
ARC
8
0
10
22.3819473
20
20.5628783
40
5.4475564
50
169.849806
51
173.3758006
0
ARC
8
0
10
23.3486541
20
20.4507309
40
6.4207466
50
173.3768484
51
176.6826923
0
ARC
8
0
10
24.4583991
20
20.3844842
40
7.5324658
50
176.6680905
51
179.22692
0
ARC
8
0
10
25.2428183
20
20.3698264
40
8.3170123
50
179.1988626
51
180.0034034
0
ARC
8
0
10
25.5797994
20
20.3694957
40
8.6539935
50
180.001081
51
180.4395016
0
ARC
8
0
10
25.8087868
20
20.3712385
40
8.8829873
50
180.4394134
51
180.8249078
0
ARC
8
0
10
26.0323986
20
20.3745003
40
9.1066228
50
180.8251729
51
181.1097172
0
ARC
8
0
10
26.2061374
20
20.3779858
40
9.2803965
50
181.1104583
51
181.5299782
0
ARC
8
0
10
26.488432
20
20.3855129
40
9.5627914
50
181.5299015
51
181.9350609
0
ARC
8
0
10
23.1584037
20
20.2722498
40
6.2308376
50
181.9281253
51
181.9482999
0
ARC
8
0
10
18.8060478
20
20.2264963
40
1.8822212
50
185.06216
51
190.182098
0
ARC
8
0
10
19.0861262
20
20.2766218
40
2.1667498
50
190.1774612
51
194.8994396
0
ARC
8
0
10
19.3736599
20
20.3525894
40
2.4641493
50
194.8873907
51
198.9348599
0
ARC
8
0
10
19.6596702
20
20.450579
40
2.7664799
50
198.9323508
51
202.7980214
0
ARC
8
0
10
19.9377367
20
20.5670365
40
3.0679484
50
202.7907978
51
206.2423143
0
ARC
8
0
10
20.1959883
20
20.6941217
40
3.3557756
50
206.2388329
51
209.5021541
0
ARC
8
0
10
20.5511672
20
20.8992236
40
3.7659065
50
209.5568907
51
215.8763557
0
ARC
8
0
10
20.9363994
20
21.1763975
40
4.2404883
50
215.8605305
51
222.0193764
0
ARC
8
0
10
21.2007856
20
21.4133206
40
4.5954977
50
222.0073974
51
228.3417395
0
ARC
8
0
10
21.3460591
20
21.5751876
40
4.8129938
50
228.3304743
51
234.9808515
0
ARC
8
0
10
21.3996241
20
21.6503245
40
4.9052663
50
234.972087
51
242.1471603
0
ARC
8
0
10
21.4065605
20
21.6626969
40
4.919446
50
242.1430566
51
249.5224616
0
ARC
8
0
10
21.4082109
20
21.6676743
40
4.9246864
50
249.5247326
51
256.7081079
0
ARC
8
0
10
21.4198006
20
21.7185439
40
4.9768578
50
256.7129005
51
263.3073102
0
ARC
8
0
10
21.4340888
20
21.8446071
40
5.1037272
50
263.3129348
51
269.5982873
0
ARC
8
0
10
21.4364926
20
21.9488669
40
5.2080016
50
269.5798853
51
270.0003273
0
ARC
8
0
10
21.4348701
20
22.0627682
40
5.3219033
50
270.0177872
51
275.1467034
0
ARC
8
0
10
21.4108552
20
22.3278933
40
5.5881139
50
275.148085
51
279.8962336
0
ARC
8
0
10
21.3535057
20
22.6566547
40
5.9218399
50
279.8961733
51
284.2311124
0
ARC
8
0
10
21.2547327
20
23.0460118
40
6.3235302
50
284.2313372
51
288.2750308
0
ARC
8
0
10
21.1073361
20
23.4927531
40
6.7939591
50
288.2739654
51
291.9758816
0
ARC
8
0
10
20.9161703
20
23.9680254
40
7.3062362
50
291.971344
51
295.1120266
0
ARC
8
0
10
20.6730641
20
24.4860407
40
7.8784604
50
295.1141175
51
298.2690727
0
ARC
8
0
10
20.3556548
20
25.0763406
40
8.548686
50
298.2689331
51
301.2638323
0
ARC
8
0
10
19.9792505
20
25.6974637
40
9.27496
50
301.2600957
51
303.8620565
0
ARC
8
0
10
19.5399396
20
26.3519996
40
10.0632565
50
303.8625766
51
306.4016592
0
ARC
8
0
10
19.06215
20
27.0019257
40
10.8699075
50
306.3956929
51
308.3911724
0
ARC
8
0
10
18.5310019
20
27.6713119
40
11.7244223
50
308.3941103
51
310.5549615
0
ARC
8
0
10
17.938852
20
28.3648364
40
12.6363525
50
310.5503882
51
312.2836249
0
ARC
8
0
10
17.3301073
20
29.0342722
40
13.5411809
50
312.283483
51
313.9562103
0
LINE
8
DEFAULT_4_2_778
10
37.1226546
20
21.7040877
11
59.4468727
21
21.7040877
0
LINE
8
DEFAULT_4_2_778
10
37.1226546
20
16.7431504
11
53.245701
21
16.7431504
0
ENDSEC
0
EOF