0
SECTION
2
HEADER
0
ENDSEC
0
SECTION
2
TABLES
0
TABLE
2
LTYPE
0
LTYPE
72
65
70
64
2
CONTINUOUS
3
______
73
0
40
0
0
ENDTAB
0
TABLE
2
LAYER
0
LAYER
2
DEFAULT_255_2_778
70
0
62
255
6
CONTINUOUS
0
LAYER
2
DEFAULT_4_2_778
70
0
62
4
6
CONTINUOUS
0
ENDTAB
0
ENDSEC
0
SECTION
2
ENTITIES
0
ARC
8
0
10
41.6936218
20
6.7304241
40
9.6784397
50
71.9655239
51
76.041012
0
ARC
8
0
10
42.324798
20
8.6626238
40
7.6457631
50
67.089761
51
71.980351
0
ARC
8
0
10
42.9677297
20
10.1775462
40
6.0000586
50
61.0185737
51
67.1133728
0
ARC
8
0
10
43.6026402
20
11.3183632
40
4.6944685
50
53.1987379
51
61.0509097
0
ARC
8
0
10
44.1968155
20
12.1075041
40
3.7066548
50
42.3844559
51
53.2457135
0
ARC
8
0
10
44.6747269
20
12.5381313
40
3.0633674
50
8.518959
51
42.4608293
0
ARC
8
0
10
43.9684489
20
12.4119938
40
3.7805921
50
359.8537452
51
8.8238855
0
ARC
8
0
10
44.0405353
20
12.3886607
40
3.7085187
50
349.2026901
51
0.2113946
0
ARC
8
0
10
44.6729891
20
12.2645334
40
3.0640104
50
315.244867
51
349.2671831
0
ARC
8
0
10
44.1013787
20
12.8061251
40
3.8512881
50
305.2440944
51
315.5106047
0
ARC
8
0
10
43.499951
20
13.6497314
40
4.8873247
50
297.9074026
51
305.2953767
0
ARC
8
0
10
42.8659677
20
14.8409131
40
6.236711
50
292.0405645
51
297.9324724
0
ARC
8
0
10
42.2190556
20
16.4311431
40
7.953487
50
287.2721937
51
292.0613137
0
ARC
8
0
10
41.6422305
20
18.2632164
40
9.8742112
50
283.9838975
51
287.311939
0
LINE
8
DEFAULT_255_2_778
10
8.681647
20
12.4023434
11
35.3466853
21
12.4023434
0
LINE
8
DEFAULT_255_2_778
10
47.7490287
20
12.4023434
11
71.3134812
21
12.4023434
0
ARC
8
0
10
41.6936218
20
-23.0352
40
9.6784397
50
71.9655239
51
76.041012
0
ARC
8
0
10
42.324798
20
-21.1030004
40
7.6457631
50
67.089761
51
71.980351
0
ARC
8
0
10
42.9677297
20
-19.588078
40
6.0000586
50
61.0185737
51
67.1133728
0
ARC
8
0
10
43.6026402
20
-18.447261
40
4.6944685
50
53.1987379
51
61.0509097
0
ARC
8
0
10
44.1968155
20
-17.65812
40
3.7066548
50
42.3844559
51
53.2457135
0
ARC
8
0
10
44.6747269
20
-17.2274929
40
3.0633674
50
8.518959
51
42.4608293
0
ARC
8
0
10
43.9684489
20
-17.3536303
40
3.7805921
50
359.8537452
51
8.8238855
0
ARC
8
0
10
44.0405353
20
-17.3769634
40
3.7085187
50
349.2026901
51
0.2113946
0
ARC
8
0
10
44.6729891
20
-17.5010907
40
3.0640104
50
315.244867
51
349.2671831
0
ARC
8
0
10
44.1013787
20
-16.9594991
40
3.8512881
50
305.2440944
51
315.5106047
0
ARC
8
0
10
43.499951
20
-16.1158928
40
4.8873247
50
297.9074026
51
305.2953767
0
ARC
8
0
10
42.8659677
20
-14.9247111
40
6.236711
50
292.0405645
51
297.9324724
0
ARC
8
0
10
42.2190556
20
-13.3344811
40
7.953487
50
287.2721937
51
292.0613137
0
ARC
8
0
10
41.6422305
20
-11.5024078
40
9.8742112
50
283.9838975
51
287.311939
0
LINE
8
DEFAULT_255_2_778
10
8.681647
20
-17.3632808
11
35.3466853
21
-17.3632808
0
LINE
8
DEFAULT_255_2_778
10
47.7490287
20
-17.3632808
11
71.3134812
21
-17.3632808
0
ARC
8
0
10
41.6936218
20
-8.1523879
40
9.6784397
50
71.9655239
51
76.041012
0
ARC
8
0
10
42.324798
20
-6.2201883
40
7.6457631
50
67.089761
51
71.980351
0
ARC
8
0
10
42.9677297
20
-4.7052659
40
6.0000586
50
61.0185737
51
67.1133728
0
ARC
8
0
10
43.6026402
20
-3.5644489
40
4.6944685
50
53.1987379
51
61.0509097
0
ARC
8
0
10
44.1968155
20
-2.7753079
40
3.7066548
50
42.3844559
51
53.2457135
0
ARC
8
0
10
44.6747269
20
-2.3446808
40
3.0633674
50
8.518959
51
42.4608293
0
ARC
8
0
10
43.9684489
20
-2.4708182
40
3.7805921
50
359.8537452
51
8.8238855
0
ARC
8
0
10
44.0405353
20
-2.4941514
40
3.7085187
50
349.2026901
51
0.2113946
0
ARC
8
0
10
44.6729891
20
-2.6182787
40
3.0640104
50
315.244867
51
349.2671831
0
ARC
8
0
10
44.1013787
20
-2.076687
40
3.8512881
50
305.2440944
51
315.5106047
0
ARC
8
0
10
43.499951
20
-1.2330807
40
4.8873247
50
297.9074026
51
305.2953767
0
ARC
8
0
10
42.8659677
20
-0.041899
40
6.236711
50
292.0405645
51
297.9324724
0
ARC
8
0
10
42.2190556
20
1.548331
40
7.953487
50
287.2721937
51
292.0613137
0
ARC
8
0
10
41.6422305
20
3.3804043
40
9.8742112
50
283.9838975
51
287.311939
0
LINE
8
DEFAULT_255_2_778
10
8.681647
20
-2.4804687
11
35.3466853
21
-2.4804687
0
LINE
8
DEFAULT_255_2_778
10
47.7490287
20
-2.4804687
11
71.3134812
21
-2.4804687
0
LINE
8
DEFAULT_4_2_778
10
74.4140538
20
-17.3632808
11
71.313468
21
-17.3632808
0
LINE
8
DEFAULT_4_2_778
10
71.3134878
20
-20.4638666
11
71.3134878
21
-14.2626949
0
LINE
8
DEFAULT_4_2_778
10
4.960944
20
-17.3632808
11
8.0615298
21
-17.3632808
0
LINE
8
DEFAULT_4_2_778
10
8.0615298
20
-14.2627015
11
8.0615298
21
-20.4638732
0
LINE
8
DEFAULT_4_2_778
10
4.960944
20
-2.4804753
11
8.0615298
21
-2.4804753
0
LINE
8
DEFAULT_4_2_778
10
8.0615298
20
0.6201106
11
8.0615298
21
-5.5810611
0
LINE
8
DEFAULT_4_2_778
10
4.960944
20
12.4023368
11
8.0615298
21
12.4023368
0
LINE
8
DEFAULT_4_2_778
10
8.0615364
20
15.5029293
11
8.0615364
21
9.3017576
0
LINE
8
DEFAULT_4_2_778
10
74.4140538
20
12.4023434
11
71.313468
21
12.4023434
0
LINE
8
DEFAULT_4_2_778
10
71.3134878
20
9.3017576
11
71.3134878
21
15.5029293
0
LINE
8
DEFAULT_4_2_778
10
74.4140538
20
-2.4804687
11
71.313468
21
-2.4804687
0
LINE
8
DEFAULT_4_2_778
10
71.3134878
20
-5.5810545
11
71.3134878
21
0.6201172
0
ENDSEC
0
EOF