0
SECTION
2
HEADER
0
ENDSEC
0
SECTION
2
TABLES
0
TABLE
2
LTYPE
0
LTYPE
72
65
70
64
2
CONTINUOUS
3
______
73
0
40
0
0
ENDTAB
0
TABLE
2
LAYER
0
LAYER
2
DEFAULT_255_2_778
70
0
62
255
6
CONTINUOUS
0
LAYER
2
DEFAULT_4_2_778
70
0
62
4
6
CONTINUOUS
0
ENDTAB
0
ENDSEC
0
SECTION
2
ENTITIES
0
ARC
8
0
10
30.596482
20
28.5294998
40
12.6130716
50
172.0937678
51
180.0186697
0
ARC
8
0
10
30.3599695
20
28.5614128
40
12.3744175
50
162.334564
51
172.0894933
0
ARC
8
0
10
30.3116268
20
28.574709
40
12.3243198
50
149.3725327
51
162.3252623
0
ARC
8
0
10
30.3716227
20
28.5386323
40
12.3943255
50
114.62823
51
149.3703197
0
ARC
8
0
10
30.3358947
20
28.6011372
40
12.3226194
50
103.3527257
51
114.5983313
0
ARC
8
0
10
30.3641667
20
28.4751673
40
12.4517134
50
94.380263
51
103.3454352
0
ARC
8
0
10
30.3843481
20
28.2393435
40
12.68839
50
89.9936487
51
94.3897964
0
ARC
8
0
10
30.3898645
20
28.3146805
40
12.6130534
50
82.0937622
51
90.0186696
0
ARC
8
0
10
30.4217757
20
28.5511804
40
12.3744121
50
72.3345581
51
82.0894873
0
ARC
8
0
10
30.4350719
20
28.599521
40
12.3243165
50
59.3725282
51
72.3252596
0
ARC
8
0
10
30.3989913
20
28.5395157
40
12.3943322
50
24.6282461
51
59.3703218
0
ARC
8
0
10
30.4615191
20
28.5752528
40
12.3226016
50
13.3527305
51
24.5983534
0
ARC
8
0
10
30.335532
20
28.5469752
40
12.4517137
50
4.3802746
51
13.3454468
0
ARC
8
0
10
30.0997082
20
28.5267964
40
12.68839
50
359.9936487
51
4.3897964
0
ARC
8
0
10
30.1750749
20
28.5212785
40
12.6130237
50
352.0937462
51
0.0186762
0
ARC
8
0
10
30.4115434
20
28.4893694
40
12.374414
50
342.33455
51
352.0894811
0
ARC
8
0
10
30.4598939
20
28.4760703
40
12.324308
50
329.3725072
51
342.3252502
0
ARC
8
0
10
30.399877
20
28.5121571
40
12.394337
50
294.6282406
51
329.3703036
0
ARC
8
0
10
30.4356112
20
28.4496355
40
12.322613
50
283.3527394
51
294.5983483
0
ARC
8
0
10
30.4073422
20
28.5755975
40
12.4516985
50
274.3802658
51
283.3454436
0
ARC
8
0
10
30.3871611
20
28.8114155
40
12.6883693
50
269.9936487
51
274.3898001
0
ARC
8
0
10
30.3816446
20
28.7361173
40
12.6130716
50
262.0937678
51
270.0186697
0
ARC
8
0
10
30.3497317
20
28.499605
40
12.3744177
50
252.334564
51
262.0894933
0
ARC
8
0
10
30.3364373
20
28.4512627
40
12.3243208
50
239.3725255
51
252.3252545
0
ARC
8
0
10
30.3725153
20
28.5112609
40
12.3943293
50
204.6282325
51
239.3703128
0
ARC
8
0
10
30.3100041
20
28.4755303
40
12.3226164
50
193.3527279
51
204.5983354
0
ARC
8
0
10
30.4359721
20
28.5038021
40
12.4517084
50
184.380264
51
193.345438
0
ARC
8
0
10
30.6717923
20
28.5239833
40
12.6883813
50
179.9936487
51
184.3897982
0
LINE
8
DEFAULT_255_2_778
10
17.9834112
20
28.5253898
11
17.9834112
21
28.5253898
0
LINE
8
DEFAULT_255_2_778
10
30.3857546
20
59.5312483
11
30.3857546
21
40.9277332
0
LINE
8
DEFAULT_255_2_778
10
30.3857546
20
-2.4804687
11
30.3857546
21
16.1230464
0
ARC
8
0
10
49.1999554
20
28.5295012
40
12.6130298
50
172.0937481
51
180.0186763
0
ARC
8
0
10
48.9634851
20
28.5614104
40
12.3744182
50
162.3345534
51
172.0894826
0
ARC
8
0
10
48.9151309
20
28.57471
40
12.3243085
50
149.3725073
51
162.3252503
0
ARC
8
0
10
48.9751448
20
28.5386249
40
12.3943341
50
114.628234
51
149.3703033
0
ARC
8
0
10
48.939411
20
28.6011445
40
12.3226122
50
103.3527303
51
114.5983395
0
ARC
8
0
10
48.9676821
20
28.4751823
40
12.4516984
50
94.3802658
51
103.3454436
0
ARC
8
0
10
48.9878632
20
28.2393642
40
12.6883693
50
89.9936487
51
94.3898001
0
ARC
8
0
10
48.9933796
20
28.3146805
40
12.6130534
50
82.0937622
51
90.0186696
0
ARC
8
0
10
49.0252908
20
28.5511804
40
12.3744121
50
72.3345581
51
82.0894873
0
ARC
8
0
10
49.038587
20
28.599521
40
12.3243165
50
59.3725282
51
72.3252596
0
ARC
8
0
10
49.0025064
20
28.5395157
40
12.3943322
50
24.6282461
51
59.3703218
0
ARC
8
0
10
49.0650342
20
28.5752528
40
12.3226016
50
13.3527305
51
24.5983534
0
ARC
8
0
10
48.9390471
20
28.5469752
40
12.4517137
50
4.3802746
51
13.3454468
0
ARC
8
0
10
48.7032233
20
28.5267964
40
12.68839
50
359.9936487
51
4.3897964
0
ARC
8
0
10
48.77859
20
28.5212785
40
12.6130237
50
352.0937462
51
0.0186762
0
ARC
8
0
10
49.0150585
20
28.4893694
40
12.374414
50
342.33455
51
352.0894811
0
ARC
8
0
10
49.063409
20
28.4760703
40
12.324308
50
329.3725072
51
342.3252502
0
ARC
8
0
10
49.0033921
20
28.5121571
40
12.394337
50
294.6282406
51
329.3703036
0
ARC
8
0
10
49.0391263
20
28.4496355
40
12.322613
50
283.3527394
51
294.5983483
0
ARC
8
0
10
49.0108573
20
28.5755975
40
12.4516985
50
274.3802658
51
283.3454436
0
ARC
8
0
10
48.9906762
20
28.8114155
40
12.6883693
50
269.9936487
51
274.3898001
0
ARC
8
0
10
48.9851598
20
28.7360992
40
12.6130534
50
262.0937621
51
270.0186696
0
ARC
8
0
10
48.9532486
20
28.4995995
40
12.3744123
50
252.3345581
51
262.0894872
0
ARC
8
0
10
48.9399543
20
28.4512593
40
12.3243175
50
239.372521
51
252.3252518
0
ARC
8
0
10
48.9760361
20
28.5112669
40
12.394336
50
204.6282486
51
239.3703149
0
ARC
8
0
10
48.913502
20
28.4755272
40
12.3225985
50
193.3527327
51
204.5983574
0
ARC
8
0
10
49.0394872
20
28.5038046
40
12.4517087
50
184.3802756
51
193.3454496
0
ARC
8
0
10
49.2753074
20
28.5239833
40
12.6883813
50
179.9936487
51
184.3897983
0
LINE
8
DEFAULT_255_2_778
10
36.5869263
20
28.5253898
11
36.5869263
21
28.5253898
0
LINE
8
DEFAULT_255_2_778
10
40.3076293
20
19.8437494
11
57.6709101
21
37.2070302
0
LINE
8
DEFAULT_255_2_778
10
57.6709101
20
19.8437494
11
40.3076293
21
37.2070302
0
LINE
8
DEFAULT_4_2_778
10
27.2851687
20
59.5312483
11
33.4863404
21
59.5312483
0
LINE
8
DEFAULT_4_2_778
10
30.3857546
20
62.6318408
11
30.3857546
21
59.531255
0
LINE
8
DEFAULT_4_2_778
10
27.2851687
20
-2.4804621
11
33.4863404
21
-2.4804621
0
LINE
8
DEFAULT_4_2_778
10
30.3857546
20
-2.4804753
11
30.3857546
21
-5.5810611
0
ENDSEC
0
EOF