0
SECTION
2
HEADER
0
ENDSEC
0
SECTION
2
TABLES
0
TABLE
2
LTYPE
0
LTYPE
72
65
70
64
2
CONTINUOUS
3
______
73
0
40
0
0
LTYPE
72
65
70
64
2
DASH_DEFAULT_255_2_778_064_085
3
______
73
2
40
2
49
-0.19921568073322585
49
0.2645833259738156
0
ENDTAB
0
TABLE
2
LAYER
0
LAYER
2
DEFAULT_255_2_778
70
0
62
255
6
CONTINUOUS
0
LAYER
2
DEFAULT_255_2_778_064_085
70
0
62
255
6
DASH_DEFAULT_255_2_778_064_085
0
LAYER
2
DEFAULT_4_2_778
70
0
62
4
6
CONTINUOUS
0
ENDTAB
0
ENDSEC
0
SECTION
2
ENTITIES
0
LINE
8
DEFAULT_255_2_778
10
21.0839838
20
34.7265615
11
45.8886706
21
34.7265615
0
LINE
8
DEFAULT_255_2_778
10
45.8886706
20
34.7265615
11
45.8886706
21
22.3242181
0
LINE
8
DEFAULT_255_2_778
10
45.8886706
20
22.3242181
11
21.0839838
21
22.3242181
0
LINE
8
DEFAULT_255_2_778
10
21.0839838
20
22.3242181
11
21.0839838
21
34.7265615
0
LINE
8
DEFAULT_255_2_778_064_085
10
45.8886706
20
28.5253898
11
53.3300766
21
28.5253898
0
LINE
8
DEFAULT_255_2_778
10
33.4863272
20
59.5312483
11
33.4863272
21
34.7265615
0
LINE
8
DEFAULT_255_2_778
10
33.4863272
20
22.3242181
11
33.4863272
21
-2.4804687
0
LINE
8
DEFAULT_255_2_778
10
55.8105453
20
33.4863272
11
53.3300766
21
33.4863272
0
LINE
8
DEFAULT_255_2_778
10
53.3300766
20
33.4863272
11
53.3300766
21
23.5644525
0
LINE
8
DEFAULT_255_2_778
10
53.3300766
20
23.5644525
11
55.8105453
21
23.5644525
0
LINE
8
DEFAULT_255_2_778
10
55.8105453
20
31.0058585
11
58.291014
21
31.0058585
0
LINE
8
DEFAULT_255_2_778
10
58.291014
20
31.0058585
11
58.291014
21
35.9667959
0
LINE
8
DEFAULT_255_2_778
10
55.8105453
20
26.0449212
11
58.291014
21
26.0449212
0
LINE
8
DEFAULT_255_2_778
10
58.291014
20
26.0449212
11
58.291014
21
21.0839838
0
LINE
8
DEFAULT_4_2_778
10
30.3857413
20
59.5312483
11
36.586913
21
59.5312483
0
LINE
8
DEFAULT_4_2_778
10
33.4863272
20
62.6318408
11
33.4863272
21
59.531255
0
LINE
8
DEFAULT_4_2_778
10
30.3857413
20
-2.4804621
11
36.586913
21
-2.4804621
0
LINE
8
DEFAULT_4_2_778
10
33.4863272
20
-2.4804753
11
33.4863272
21
-5.5810611
0
ENDSEC
0
EOF